Song name
# A B C D E F G H I J K L M N O P Q R S T U V W X Y Z

Misc Computer Games - Tetris - Korobeiniki tab

e|-0------------------------------------------------------------------------|
B|-----1-3-1-0-----1-5-3-1-0-0-1-3-5-1--------------------------------------|
G|---4---------2-2---------------------2-2----------------------------------|
D|--------------------------------------------------------------------------|
A|-0------------------------------------------------------------------------|
E|--------------------------------------------------------------------------|

e|---1-3/5-3-1-0---0--------------------------------------------------------|
B|-3-------------1---3-1-0-0-1-3-5-1----------------------------------------|
G|-2---------------------------------2-2------------------------------------|
D|--------------------------------------------------------------------------|
A|--------------------------------------------------------------------------|
E|--------------------------------------------------------------------------|

e|-0------------0-----------5-4---------------------------------------------|
B|--1-3-0-1-------1-3-0-1-5---5---------------------------------------------|
G|----------2-1---------------4---------------------------------------------|
D|--------------------------------------------------------------------------|
A|-0------------0-----------------------------------------------------------|
E|--------------------------------------------------------------------------|

and so on
much fun!

I hope i will get a good feedback because it's my first one :)
Tap to rate this tab
# A B C D E F G H I J K L M N O P Q R S T U V W X Y Z