Song name
# A B C D E F G H I J K L M N O P Q R S T U V W X Y Z

Misc Computer Games - Paper Mario - File Select tab

This is the melody to the file select theme from the original Paper Mario, a 
pretty snazzy little ditty if you ask me.


E-------------------------------------------------------------------|
B--10------------------------10----10----------------13-10------10--|
G------10--------10-10----12----12----12-------12-12--------12------|
D----------10-12-------12-------------------12----------------------|
A-------------------------------------------------------------------|
E-------------------------------------------------------------------|


E--------------------------------------------------------------------|
B--10---------------------10----10-------10----10----10-13----10-----|
G------10--------10-10-------12----12-------12----12-------12----10--|
D----------10-12-------12--------------------------------------------|
A--------------------------------------------------------------------|
E--------------------------------------------------------------------|


E-------------------------------------------------------------------|
B-----------------------------------------------------------10------|
G-----------------9----8-9-----------9-10----12----12----12-----12--|
D---------------------------10-12-12------------12----12------------|
A-----10-11-12------------------------------------------------------|
E--13---------------------------------------------------------------|


E--------------10-12-10-12-10----12-13-10----------------------|
B--10-11-13-------------------------------10----12-------------|
G--------------------------------------------10-------9----10--|
D--------------------------------------------------------------|
A--------------------------------------------------------------|
E--------------------------------------------------------------|


Any concerns? Shoot me a message on my UG profile.
Tap to rate this tab
 
# A B C D E F G H I J K L M N O P Q R S T U V W X Y Z