Song name
# A B C D E F G H I J K L M N O P Q R S T U V W X Y Z

Misc Computer Games - Shin Megami Tensei Persona 4 - New Days tab

Standard Tuning
Very easy song but very enjoyable to hear and play.
This song gives me all sorts of good memories...

|--3-4-6-6-3-4-6-6-4-3-4---6-3-|
|------------------------6-----|
|------------------------------|
|------------------------------|
|------------------------------|

Repeat but add a distortion effect

|--3-4-6-6-3-4-6-6-4-3-4---6-3-|
|------------------------6-----|
|------------------------------|
|------------------------------|
|------------------------------|
|------------------------------|

|--8-3-10-6---------------|
|-----------6-4-6-8-------|
|-------------------5-3-5-|
|-------------------------|
|-------------------------|
|-------------------------|

|--3-4-6-6-3-4-6-6-4-3-4---6-3-|
|------------------------6-----|
|------------------------------|
|------------------------------|
|------------------------------|

Repeat Endlessly
Tap to rate this tab
# A B C D E F G H I J K L M N O P Q R S T U V W X Y Z