Song name
# A B C D E F G H I J K L M N O P Q R S T U V W X Y Z

Misc Computer Games - F-zero - Big Blue tab

F-ZERO - BIG BLUE
Tabbed by: Pelle Kuipers
Standard Tuning

I tabbed everything except the really fast part. Canít get it, I do know which scale 
they use but what exactly is being played is a mystery to me. If anyone does know, pm me 
and Iíll edit the tab.

e|---------------------------------------------------------|
G|---------------------------------------------------------|
B|---------------------------------------------------------|
D|---8---8-6-----6---6-8-----------------------------------|
A|---8---8-6-----6---6-8-----------------------------------|
E|---6---6-4-----4---4-6-----------------------------------|

e|---------------------------------------------------------|
G|---------------------------------------------------------|
B|-------------------------------8-7-----------------------|
D|---8---8-6-----6---6-8-----6-8-----6-8-------------------|
A|---8---8-6-----6---6-8---8-------------------------------|
E|---6---6-4-----4---4-6-----------------------------------|

e|---------------------------------------------------------|
G|---------------------------------------------------------|
B|---------------------------------------------------------|
D|---8---8-6-----6---6-8-----------------------------------|
A|---8---8-6-----6---6-8-----------------------------------|
E|---6---6-4-----4---4-6----4-6----6-9-8-------------------|

e|------------------------------------------------------------|
G|------------------------------------------------------------|
B|-------------6-5--------------------------------------------|
D|---8---8-6-------6--6-6--6/3--------------------------------|
A|---8---8-6---------------6/3--------------------------------|
E|---6---6-4---------------4/1--------------------------------|

e|---------------------------------------------------------|
B|-4-4-------------------------6---6-9-8---6---------------|
G|-----8-6-5-6--5-----5-6-5------8-------8-----------------|
D|----------------8-6-------6------------------------------|
A|---------------------------------------------------------|
E|---------------------------------------------------------|

e|----------------------9-8--------------------------13-11-|
B|-11p9p7-11p9p7-11p9p7-----9---11p9p7-11p9p7-11p9p7-------|
G|---------------------------------------------------------|
D|---------------------------------------------------------|
A|---------------------------------------------------------|
E|---------------------------------------------------------|

e|------------------------------13-11----------------------|
B|--13-14-13-------------13-14--------14-13-14-13----------|
G|-----------13-11-13-15---------------------------13-15---|
D|---------------------------------------------------------|
A|---------------------------------------------------------|
E|---------------------------------------------------------|

e|---------------------------------------------------------|
B|------------------11---------------------9---------------|
G|--10---------10-8----10--8--------8---------11-----------|
D|-----11-8-11----------------10-11------------------------|
A|-------------------------------------11------------------|
E|---------------------------------------------------------|

e|--------------------------------------13----11-9--8------|
B|--------------------------------11-14----11--------------|
G|--10h11p10p8-----------------10--------------------------|
D|-------------11-10--------11-----------------------------|
A|-------------------11--13--------------------------------|
E|---------------------------------------------------------|

e|----------8-9-8--11-9-8----------------------------------|
B|-----9-11---------------11-9-6-----6----6----6-9-6-------|
G|--10----------------------------b8---b8---b8-------------|
D|---------------------------------------------------------|
A|---------------------------------------------------------|
E|---------------------------------------------------------|

e|--------9-6-------------------------------8--------------|
B|--6-9-6-----9-6----6----6----6-9---6-9-6----9-6----------|
G|----------------b8---b8---b8-----8--------------8--------|
D|---------------------------------------------------------|
A|---------------------------------------------------------|
E|---------------------------------------------------------|

e|----6-9----6-9---6-9----6-9-9b11-8-----------------------|
B|--7-----7------7-----7-----------------------------------|
G|---------------------------------------------------------|
D|---------------------------------------------------------|
A|---------------------------------------------------------|
E|---------------------------------------------------------|

e|---------------------------------------------------------|
B|-----------------------------------------------------ETC-|
G|-----------------------------------------------8-10-11---|
D|---REALLY-FAST-PLAYING---------------6-8-10-11-----------|
A|-------------------------------6-8-9---------------------|
E|-------------------------6-8-9---------------------------|

e|---------------------------8---9-8-----------------------|
B|------9------------------9---9-----11-9---------9--------|
G|---10---10---------10-10----------------10--------11-10--|
D|-----------10---10-------------------------8-11----------|
A|---------------------------------------------------------|
E|---------------------------------------------------------|

e|--------------------------------------------------------------|
B|----------9--9-9-9--------------------------------------------|
G|-------10-----------------------------------------------------|
D|-8-11---------------3-6-3-6-3-6-------------------------------|
A|--------------------------------------------------------------|
E|--------------------------------------------------------------|
Tap to rate this tab
 
# A B C D E F G H I J K L M N O P Q R S T U V W X Y Z