Song name
# A B C D E F G H I J K L M N O P Q R S T U V W X Y Z

Misc Computer Games - Legend Of Zelda - Links Awakening tab

hey, hey, hey, look, listen!
first tab ever :D hope you guys enjoy and i am pretty sure i am the first one to 
make tab for this.
LEGEND OF ZELDA!!!!

h - hammer on
s - slide
b - bend


\\\\\\\\\\\\\\\\\\\\\\\\\\\\\\\\\\\\\\\\\\\\\\\\\\\\\\\\\\\\\\\\\\\\\\\\\\\\\\\\\\\\\\\\\\\\\\\
background guitar at intro

|---------------------------------------------|
|---------------------------------------------|
|-------0--------0------0---------------------|    4x
|----0--------0-------------------------------|
|---------------------------------------------|
|-3--------3---------3------------------------|



acoustic part
|---------------------------------------------------------------------|
|---------------------------4-6-6s8----8-8-6-4-6-4-3b-----------------|
|--0---0h2--4s5-5s7----7-7--------------------------------------------|
|----0----------------------------------------------------------------|
|---------------------------------------------------------------------|
|---------------------------------------------------------------------|


|-------------------------------------------------------------------|
|--3-3b------3-3h4---3------------3b----------------5--3------------|
|--------5-5------------5---3-3-5------5-3-2-2-4-6------------------|
|---------------------------------------------------------5-4---4---|
|--------------------------------------------------------------5----|
|-------------------------------------------------------------------|


|------------------------------------------------------------------------------|
|---------------------------------4-6-6s8--4-4---8-8-6-4-6-4-3-----------------|
|--0-----0h2--4s5-5s7--0-0---7-7------------------------------3----------------|
|----0-0--------------------------------------------------------3--------------|
|------------------------------------------------------------------------------|
|------------------------------------------------------------------------------|


|--------------------------------------------------------------------------------------|
|-3-3b------3-3h4---3----------------------------------------3-------------------------|
|-------5-5------------5--3--2--3--5--3--5--5s7--7--7--5--3----5--2--------------------|
|---------------------------------------------------------------------5--4--4-4--4h5---|
|-------------------------------------------------------------------------------5------|
|--------------------------------------------------------------------------------------|


|-------------------------5-6-8--5-----------------------------------------------|
|-----4-6-6s8--4-4---8-8-----------6-----------6-4-------------------------------|
|--7----------------------------------5---5--7------7-5-7--0-0--0---0-2-3-5-7----|
|------------------------------------------------------------------3-------------|
|--------------------------------------------------------------------------------|
|--------------------------------------------------------------------------------|

                                                   (quick hammer on)
|---------6-5--------------3-4--6--8--11-11-11-13-11--10h11h10--------------------------|
|-------------8----------------------------------------------------11-10-6-3------------|
|--7-5-7----------7-7-7-4---------------------------------------------------------------|
|---------------------------------------------------------------------------------------|
|---------------------------------------------------------------------------------------|
|---------------------------------------------------------------------------------------|


i cant figure out the electric solo part but after the solo just repeat the beggining 
parts where it starts
if anyone has the electric solo part PLEASE put it under the comments

THANK YOU ALL
Tap to rate this tab
# A B C D E F G H I J K L M N O P Q R S T U V W X Y Z