Song name
# A B C D E F G H I J K L M N O P Q R S T U V W X Y Z

Misc Computer Games - Assassins Creed Revelations Theme tab

-----------------------------------------------------------------------------
Assassin’s Creed Revelations – Lorne Balfe
-----------------------------------------------------------------------------
Tabbed by: Cernunnos636
E-mail: Dontcatchedge@gmail.com
There is more to this song, mostly just chords or single notes to finish it out, but
this melody repeats.  I know that she couldn’t hit some of the double notes, but I think it
adds to the song.  Since this is my first tab, I hope that it makes sense.  Any 
suggestions or additions are welcome.

Tuning: Standard
                                                    p
e|--------------------------------------------------------------------------|
B|-------------------------------------------------1------------------------|
G|------3-2---------------------2---------------2-----3--2----------3-------|
D|----0----------------------0---------------1--------------------0---------|
A|-----------------------------------------3--------------------------------|
E|--3--------------------1-------------------------------------3------------|

e|--------------------------------------------------------------------------|
B|-----------------------------------3--------------------------------------|
G|---------2--0--------3-----------3--------------------2-------------------|
D|-----1---------1--------------0-------------------------------------------|
A|--1--------------1-------------------------------3------------------------|
E|--------------------------3------------------1----------------------------|
                                               P  h
e|--------------------------------------------------------------------------|
B|-------------------------------------------3---1--3---------------3-------|
G|--------3--2--------------0-------------0---------------------0-----------|
D|--------------------------------------------------------------------------|
A|----3----------------3----------------------------------------------------|
E|-1----------------0------------------3------------------1-----------------|

e|--------------------------------------------------------------------------|
B|----------3---1-------4----4/6---------------4-------------3--------------|
G|-------1---------------------------------0-------------0------5-----------|
D|----3------------3---------------------------------------------------3----|
A|--3---------------------------------3-------------------------------------|
E|---------------------------------------------------4-------------4--------|

e|--------------------------------------------------------------------------|
B|----------------3-----1-------------------------4---3---------------------|
G|----------0---------------0-----------------5----------5-----------5------|
D|------1-----------------------1---------0---------------------4-----------|
A|-----------------------------------------------------------5-------5------|
E|--3-----------------------------------------------------------------------|

e|------------------------------------------------||
B|---------------1----0-----------3------------- *||
G|--------------------------------0---------------||
D|----------0-------------------------------------||
A|---------------------------------------------- *||
E|-----3--------------------3-----3---------------||


************************************

| /   slide up
| \   slide down
| h   hammer-on
| p   pull-off
| ~   vibrato
| +   harmonic
| x   Mute note
| b   Bend
| pb  Pre-bend
| br  Bend release
| pbr Pre-bend release
| brb Bend release bend

************************************
Tap to rate this tab
# A B C D E F G H I J K L M N O P Q R S T U V W X Y Z