Song name
# A B C D E F G H I J K L M N O P Q R S T U V W X Y Z

Misc Computer Games - Legend Of Zelda Theme tab

                             Legend of Zelda Theme

Tabbed by: RocknRollspirit.
E-mail:

Tuning: Standard

I couldn't find this so i decided to tab it myself, i'm sure its 100% if you find an 
error lemme know. Really fun song to play. The timing is probably really f***** up so 
listen to the song for the rhythm.

e|-----6-------------6-------4---2---2------------6--------------6------------|
B|------------6---6----------------------------------------7--7---------------|
G|----------------------------------------------------------------------------|
D|----------------------------------------------------------------------------|
A|----------------------------------------------------------------------------|
E|----------------------------------------------------------------------------|

e|--5---3---5-------------------------------------------6--------------------|
B|---------------------------------------------------------------6-----------|
G|---------------------------------------------------------------------------|
D|---------------------------------------------------------------------------|
A|------------------------4-------------------4------------------------------|
E|---------------------------------------------------------------------------|

e|-6---6--8-10--11--13------13--------------13--13--14----16--18--------------|
B|----------------------------------------------------------------------------|
G|----------------------------------------------------------------------------|
D|----------------------------------------------------------------------------|
A|----------------------------------------------------------------------------|
E|----------------------------------------------------------------------------|

e|--18----18---16----14---------16----14---13---13-------11----11--13---14---|
B|---------------------------------------------------------------------------|
G|---------------------------------------------------------------------------|
D|---------------------------------------------------------------------------|
A|---------------------------------------------------------------------------|
E|---------------------------------------------------------------------------|

e|13---11------------9---9-11-13------11---9---------8----8----10---12-----15-|
B|----------------------------------------------------------------------------|
G|----------------------------------------------------------------------------|
D|----------------------------------------------------------------------------|
A|----------------------------------------------------------------------------|
E|----------------------------------------------------------------------------|

e|--13------------------------------------------------------------------------|
B|----------------------------------------------------------------------------|
G|-----------------------------------------------15--------15----15-----------|
D|-------------------151515-151515-151515-15----------15----------------------|
A|----------------------------------------------------------------------------|
E|----------------------------------------------------------------------------|

e|-----------------13---------13-13-14----16---18-----21---20-----------------|
B|--------------------------------------------------------------22------------|
G|--------------------------------------------------------------------22---23-|
D|--13-15-16------------------------------------------------------------------|
A|----------------------------------------------------------------------------|
E|----------------------------------------------------------------------------|

e|---------------------------------------------------------------------------|
B|----23---22-------------------23---22----------------------19-----18-------|
G|--------------22-----22---23-----------22-----19----20---------------------|
D|---------------------------------------------------------------------------|
A|---------------------------------------------------------------------------|
E|---------------------------------------------------------------------------|

e|-------------------------------15---13-------------------------------------|
B|----------------------15-17------------------------------------------------|
G|18----15------17---17------------------------------------------------------|
D|-------------------------------------------151515-151515-151515-15---------|
A|---------------------------------------------------------------------------|
E|---------------------------------------------------------------------------|
Tap to rate this tab
# A B C D E F G H I J K L M N O P Q R S T U V W X Y Z