Song name
# A B C D E F G H I J K L M N O P Q R S T U V W X Y Z

Misc Computer Games - Assassins Creed Revelations Theme tab

Title: Assassin's Creed Revelations Theme
Composer: Lorne Balfe

The second section is the same as the first, but with chords added.
Instead, you can play the first section twice if you wish.




E |--3--6--5-------|--5--8--6-------|--5--3--6-------|--5-----------6--5--3-------|
B |----------------|----------------|----------------|----------------------------|
G |----------------|----------------|----------------|----------------------------|
D |----------------|----------------|----------------|----------------------------|
A |----------------|----------------|----------------|----------------------------|
E |----------------|----------------|----------------|----------------------------|

|--10-8--10------|--10-8--11------|--13-11---------------------|--11-10-8-------|
|----------------|----------------|----------------------------|-----------8----|
|----------------|----------------|----------------------------|----------------|
|----------------|----------------|----------------------------|----------------|
|----------------|----------------|----------------------------|----------------|
|----------------|----------------|----------------------------|----------------|


|-----6--5--3----|--------6--5----|--10---|
|----------------|--3-------------|-------|
|----------------|----------------|-------|
|----------------|----------------|-------|
|----------------|----------------|-------|
|----------------|----------------|-------|

 ===================================================

|--3--6--5-------|--5--8--6-------|--5--3--6-------|----------------------------|
|--3-------------|--5-------------|--5-------------|--10----------11-10-8-------|
|--3-------------|--5-------------|--5-------------|--9-------------------------|
|--0-------------|--7-------------|--0-------------|--10------------------------|
|----------------|----------------|----------------|--0-------------------------|
|----------------|----------------|----------------|----------------------------|


|--10-8--10------|--10-8--11------|--13-11---------------------|--11-10-8-------|
|--10------------|--10------------|--13------------------------|-----------8----|
|--10------------|--10------------|----------------------------|----------------|
|--0-------------|--0-------------|----------------------------|----------------|
|----------------|----------------|----------------------------|----------------|
|----------------|----------------|----------------------------|----------------|


|-----6--5--3----|--------6--5----|--10---|
|----------------|--3-------------|-------|
|----------------|----------------|-------|
|----------------|----------------|-------|
|----------------|----------------|-------|
|----------------|----------------|-------|

 ===================================================

|--3--2--6-------|--5----|
|----------------|-------|
|----------------|-------|
|----------------|-------|
|----------------|-------|
|----------------|-------|


|----------------------------|----------------------------|----------------------------|
|----------------------------|----------------------------|----------------------------|
|--0--------------0----------|--------------1--0----------|--0-----------0-------------|
|--------------3-------------|--3-------------------------|-----------3--------1-------|
|----------------------------|----------------------------|----------------------------|
|----------------------------|----------------------------|----------------------------|


|----------------------------|----------------------------|----------------------------|
|----------------------------|----------------------------|--3--------1--0-------------|
|----------------------------|--0-----------1-------------|----------------------------|
|--0--------1--0-------------|-----------3----------------|----------------------------|
|-----------------3----------|----------------------------|----------------------------|
|----------------------------|----------------------------|----------------------------|


|----------------------------|----------------------------|
|--1-------------------------|----------------------------|
|-----------3--1-------------|--0--------1--0-------------|
|----------------------------|----------------------------|
|----------------------------|----------------------------|
|----------------------------|----------------------------|

 ===================================================

||---------------|----------------|----------------|---------------||
||-------6-------|----------------|--------6--9----|--9--8---------||
||o8--7-----7----|--7--5--8--7----|--8--7----------|--------7--8--o||   Repeat
||o--------------|----------------|----------------|--------------o||     2x
||---------------|----------------|----------------|---------------||
||---------------|----------------|----------------|---------------||

|-------||
|-------||
|--5----||
|--5----||
|--3----||
|-------||
Tap to rate this tab
# A B C D E F G H I J K L M N O P Q R S T U V W X Y Z