Song name
# A B C D E F G H I J K L M N O P Q R S T U V W X Y Z

Misc Computer Games - Bioshock Infinite - Will The Circle Be Unbroken tab

"Will the Circle Be Unbroken" (Bioshock Infinite)
Tabbed by: Piecrust8
Tuning: EADGBEC

   C     G  C    C                               (Soft)
e|----------0--------------------------------------0-------------|
B|-0h1---3--1---------------------------------1--1---------------|
G|-0-----0--0------0----0-0--0-----------0----2----------0-------|
D|-2-----0--2------2----0h2--0----2--0h2---3--3----------2-------|
A|-3-----2--3----3--------------3----------------------3---------|
E|-------3-------------------------------------------------------|

          C            (soft)                 G         C
e|---------------------------------------------------------------|
B|----------------------1---------------------------0---1--------|
G|--------0---0-----------0---------------0-------------0--------|
D|--------2---2--2----------2----2--2--2--2---0---------2--------|
A|---0-3--3---3--2--0------------0--2--3----------------3--------|
E|-3---------------------------------------------3---------------|

h: hammer on(soft): pluck these parts very lightly


This is not my own work I have only put it on this site for others to learn. All credit 
to Piecrust8.
Tap to rate this tab
 
# A B C D E F G H I J K L M N O P Q R S T U V W X Y Z