Song name
# A B C D E F G H I J K L M N O P Q R S T U V W X Y Z

Misc Computer Games - Metro - Last Light Theme tab

Tuning:eBGDAE
tab by Altran

e|----------------------------------------|
B|----------------------------------------|
G|----------------------------------------|
D|---2---2/5-------4--------2--------1----|
B|-------------0-3--------3--------3------|
E|-0--------------------3--------3--------|

e|----------------------------------------|
B|----------------------------------------|
G|--------------2-------------------------|
D|---2---2/5------5-4-----0---------4-1---|
B|-------------0------------4-2-----------|
E|-0--------------------3---------2-------|

e|----------------------------------------|
B|----------------------------------------|
G|----------------------------------------|
D|---2---2/5-------4--------2--------1----|
B|-------------0-3--------3--------3------|
E|-0--------------------3--------3--------|

e|----------------------------------------|
B|----------------------------------------|
G|---5---4-5-4----------------------------|
D|----------------4--4p5/7--5--4-5--4-5-2-|
B|--------------2-------------------------|
E|-0---0----------------------------------|
Tap to rate this tab
# A B C D E F G H I J K L M N O P Q R S T U V W X Y Z