Song name
# A B C D E F G H I J K L M N O P Q R S T U V W X Y Z

Misc Computer Games - Luigis Mansion 2 Theme tab

There are two parts to this song which you will be able to hear if you
 listen to the music from the game. The tab is as accurate as possible 
and I hope you enjoy it. Check out my gp5 file of it as well and 
also note that the structure for the song is A B A B etc.

(Clarinet) Lead Part : Drop D Tuning

Part A

e|---------------|---------------|-------------|-------|
B|---------------|-------------10|-------------|-------|
G|---------------|-----------9---|10-----12-10-|9-----9|
d|7-6-7-9-10--7--|--7-6-7-10-----|-------------|-------|
A|---------------|---------------|-------------|-------|
D|---------------|---------------|-------------|-------|

e|-------|-------|-----|-----|
B|-------|-------|-----|-----|
G|8-----6|7-----4|5----|4----|
d|-------|-------|-----|-----|
A|-------|-------|-----|-----|
D|-------|-------|-----|-----|

e|---------------|----------------|-------------|-------|
B|---------------|--------------10|-------------|-------|
G|---------------|----------7-9---|10-----12-10-|9-----9|
d|7-6-7-9-10--7--|--7-6-7-9-------|-------------|-------|
A|---------------|----------------|-------------|-------|
D|---------------|----------------|-------------|-------|

e|-------|-------|-------|-----|
B|-------|-------|-------|-----|
G|8-----6|7-----4|5-----3|4----|
d|-------|-------|-------|-----|
A|-------|-------|-------|-----|
D|-------|-------|-------|-----|

Part B

e|--------------|--------|----------------|----------------|
B|--------------|--------|----------------|----------------|
G|--------------|--------|----------------|----------------|
d|--------6-7---|--------|----------------|----------------|
A|8-7-8-------8-|7-6-7---|5-4-5-4-5-8-7---|--3-2-5-4-7-5-10|
D|--------------|--------|--------------6-|7---------------|

e|--------------|----------|---------------|---------------|
B|--------------|----------|---------------|---------------|
G|--------------|----------|---------------|---------------|
d|--------6-7---|---7------|---------------|---------------|
A|8-7-8-------8-|7-----0---|0-3------------|---------------|
D|--------------|----------|----6-1-3-2----|---1-2-3-2-1-2-|

e|---------------|--------------|----|
B|---------------|--------------|----|
G|---------------|--------------|----|
d|---------------|--------------|----|
A|0-3------------|--7-3-6-5-2-3-|0---|
D|----6-1-3-2----|--------------|----|

(Strings and Piano Hybrid) Staccato Rhythm Part : Standard Tuning

Part A

e|-------|-------|-------|-------|-------|-------|-------|-------|
B|-------|-------|-------|-------|--7---7|--5---5|--5---5|-------|
G|--5---5|--5---4|--5---5|--5---5|--8---8|--4---4|--7---4|--4-3-4|
d|--7---7|--7---6|--7---7|--7---7|--9---9|--7---7|--7---7|--6---6|
A|--7---7|--7---7|--7---7|--7---7|6------|5------|----6--|--7---7|
E|5---8--|1---4--|5---0--|5---0--|----7--|----5--|8------|0-----0|

e|-------|-------|-------|-------|-------|-------|-------|-------|
B|-------|-------|-------|-------|--7---7|--5---5|--5---5|-------|
G|--5---5|--5---4|--5---5|--5---5|--8---8|--4---4|--7---4|--4-3-4|
d|--7---7|--7---6|--7---7|--7---7|--9---9|--7---7|--7---7|--6---6|
A|--7---7|--7---7|--7---7|--7---7|6------|5------|----6--|--7---7|
E|5---8--|1---4--|5---0--|5---0--|----7--|----5--|8------|0-----0|

Part B

e|--------|--------|--------|--------|--------|--5-----|-|-|-|-|-|
B|--1---1-|--------|--------|--------|--1---1-|--5-5---|-|-|-|-|-|
G|--2---2-|--5---5-|--7---7-|--5---6-|--2---2-|--5-5---|-|-|-|-|-|
d|--3---3-|--7---7-|--7-6-7-|--7---7-|--3---3-|----7---|-|-|-|-|-|
A|----3---|--9-0-9-|5-8---8-|--7---7-|----3---|--------|-|-|-|-|-|
E|1-------|0-------|--------|5---9---|1-------|5-------|-|-|-|-|-|
Tap to rate this tab
 
# A B C D E F G H I J K L M N O P Q R S T U V W X Y Z