Song name
# A B C D E F G H I J K L M N O P Q R S T U V W X Y Z

Misc Computer Games - 4 Letter Love - Stikki Fingers tab

     INTRO
 E|---------------------|---------------------||
 B|---------------------|---------------------||
 G|--10-10--8-10--8-10--|--8--8-----8---------||
 D|--10-10--8-10--8-10--|--8--8--8--8--8-10---||
 A|---8--8--6--8--6--8--|--6--6--8--6--8-10---||
 E|---------------------|--------6-----6--8---||

      MAIN RIFF
 E|-----------------------------------||
 B|-----------------------------------||
 G|--10--x--10-10----10-x--10-10--x---||
 D|--10--x--10-10----10-x--10-10--x---||
 A|---8--x---8--8-----8-x---8--8--x---||
 E|-----------------------------------||

 E|-----------------------------------||
 B|-----------------------------------||
 G|--10--8--x--8--8--x--8-10--x-10-10-||
 D|--10--8--x--8--8--x--8-10--x-10-10-||
 A|---8--6--x--6--6--x--6--8--x--8--8-||
 E|-----------------------------------||

     CHORUS
 E|-------------------------------||
 B|-------------------------------||
 G|-------------------------------||
 D|-------------------------------||
 A|--8-10-10-8-10---8-10-10-8-10--||
 E|--6--8--8-6--8---6--8--8-6--8--||
 
 E|-------------------------------||
 B|-------------------------------||
 G|-------------------------------||
 D|--8------------8-----------10--||
 A|--6--8--8--8---6--8--8--8--10--||
 E|-----6--6--6------6--6--6---8--||

 E|-------------------------------||
 B|-------------------------------||
 G|-------------------------------||
 D|-------------------------------||
 A|--8-10-10-8-10---8-10-10-8-10--||
 E|--6--8--8-6--8---6--8--8-6--8--||

 E|-------------------------------||
 B|-------------------------------||
 G|-------------------------------||
 D|------------8--8--10-13--8-10--||
 A|--8-8-8-8---6--6---8-11--6--8--||
 E|--6-6-6-6----------------------||

solo intro
   |--6-8-10--(11-10-8)-(X9)--11/13^---13-11-------------|
   |----------------------------------------13-11---13^--|
   |----------------------------------------------12-----|
   |-----------------------------------------------------|
   |-----------------------------------------------------|
Tap to rate this tab
 
# A B C D E F G H I J K L M N O P Q R S T U V W X Y Z