Song name
# A B C D E F G H I J K L M N O P Q R S T U V W X Y Z

Misc Computer Games - Metro - Last Light Theme tab

Well this is pretty much the first 40 seconds of it.
Will complete it later! Have fun

*I know it's not acual the same but it's really close to it

--0--/3------2------0-----------0---3---5---3---2------3---2---0-----2----|
----------1------0----------4-------------------------------------------4-|
--------2------0----------2-----------------------------------------------|
------------------------4-------------------------------------------------|
--------------------------------------------------------------------------|
--0-----------------------------0-----------------------------------------|

                            |  *1    |   *2          |
--0---0----3---3-------------------------------------|
--------------------1---1----0---0----0---0----------|
---------------------------------------------0-------|    x2
-------------------------------------------------2---|
-----------------------------------------------------|
--0--0--0--0--0--0--0--0--0--0--0--0--0--0--0--0--0--|


--0----0---3----3---5---5----2---2----3---3----0---0----2---2-------------|
-----------------------------------------------------------------4---4----|
--------------------------------------------------------------------------|
--------------------------------------------------------------------------|
--------------------------------------------------------------------------|
--0--0--0--0--0--0--0--0--0--0--0--0--0--0--0--0--0--0--0--0--0--0--0--0--|
Tap to rate this tab
# A B C D E F G H I J K L M N O P Q R S T U V W X Y Z