Song name
# A B C D E F G H I J K L M N O P Q R S T U V W X Y Z

Misc Computer Games - Sonic And The Secret Rings - The Palace That Was Found Theme Of Evil Foundry tab

#----------------------------------PLEASE NOTE---------------------------------#
#This file is the author's own work and represents their interpretation of the #
#song. You may only use this file for private study, scholarship, or research. #
#------------------------------------------------------------------------------##

                THE PALACE THAT WAS FOUND (THEME OF EVIL FOUNDRY)
                            As recorded by Runblebee
(From the 2007 Album SEVEN RINGS IN HAND: SONIC AND THE SECRET RINGS ORIGINAL SOUND TRACK)

Words and Music by Runblebee
Transcribed by Slightly Chaotic

My apologies, I haven't figured out the solos quite yet. Will update once I do.
In the meantime, there's the 8 bar rests in their place. Leads will go there
once they're figured out.

Gtr I (D A D G B E) - 'Rhythm'
Gtr II (D A D G B E) - 'Lead'

    Q=140
   4/4
    Gtr II
     E  S  E  S  E  E  S  E  S  E    E  S  E  S  E  E  Q.
||--------------------------------|------------------------|
||o-12-12-13-12-12-12-12-13-12-12-|-12-12-13-12-12-10-12---|
||--------------------------------|------------------------|
||--------------------------------|------------------------|
||o-------------------------------|------------------------|
||--------------------------------|------------------------|


   E  S  E  S  E  E  S  E  S  E    E  S  E  S  E  E  Q.
|-------------------------------|------------------------|
|-12-12-13-12-12-12-12-13-12-12-|-12-12-13-12-12-10-12---|
|-------------------------------|------------------------|
|-------------------------------|------------------------|
|-------------------------------|------------------------|
|-------------------------------|------------------------|


  Gtr I
   Q   Q   E  Q   E     E   Q   E  Q   Q    Q  Q  E Q  E    E  Q  E Q  Q
|-------------------|---------------------|--------------|----------------|
|-------------------|---------------------|--------------|----------------|
|-------------------|---------------------|--------------|----------------|
|-10--10--10-10--10-|-(10)-10--10-10--10--|-9--9--9-9--9-|-(9)-9--9-9--9--|
|-10--10--10-10--10-|-(10)-10--10-10--10--|-9--9--9-9--9-|-(9)-9--9-9--9--|
|-10--10--10-10--10-|-(10)-10--10-10--10--|-9--9--9-9--9-|-(9)-9--9-9--9--|


  Gtr II
   E  S  E    S  E  E  S  E  S  E    E   S  E  S  E  E  Q.
|---------------------------------|--------------------------|
|-12-12-13---12-12-12-12-13-12-12-|-12--12-13-12-12-10-12----|
|---------------------------------|--------------------------|
|---------------------------------|--------------------------|
|---------------------------------|--------------------------|
|---------------------------------|--------------------------|
|
| Gtr I
|  Q       Q        E  Q        E    E   Q        E  E  Q.
|---------------------------------|--------------------------|
|---------------------------------|--------------------------|
|---------------------------------|--------------------------|
|--7-------7--------7--7--------9-|-(9)--9-------10-10-10----|
|--7-------7--------7--7--------9-|-(9)--9-------10-10-10----|
|--7-------7--------7--7--------9-|-(9)--9-------10-10-10----|


   E  S  E    S  E  E  S  E  S  E    E   S  E  S  E  E  Q.
|---------------------------------|---------------------------|
|-12-12-13---12-12-12-12-13-12-12-|-12--12-13-12-12-10-12-----|
|---------------------------------|---------------------------|
|---------------------------------|---------------------------|
|---------------------------------|---------------------------|
|---------------------------------|---------------------------|
|
|  Q       Q        E  Q        E    E   Q        E  E  Q.
|---------------------------------|---------------------------|
|---------------------------------|---------------------------|
|---------------------------------|---------------------------|
|--7-------7--------7--7--------9-|-(9)--9-------10-10-10-----|
|--7-------7--------7--7--------9-|-(9)--9-------10-10-10-----|
|--7-------7--------7--7--------9-|-(9)--9-------10-10-10-----|


  Gtr I
   Q   Q   E  Q   E     E   Q   E  Q   Q    Q  Q  E Q  E    E  Q  E Q  Q
|-------------------|---------------------|--------------|----------------|
|-------------------|---------------------|--------------|----------------|
|-------------------|---------------------|--------------|----------------|
|-10--10--10-10--10-|-(10)-10--10-10--10--|-9--9--9-9--9-|-(9)-9--9-9--9--|
|-10--10--10-10--10-|-(10)-10--10-10--10--|-9--9--9-9--9-|-(9)-9--9-9--9--|
|-10--10--10-10--10-|-(10)-10--10-10--10--|-9--9--9-9--9-|-(9)-9--9-9--9--|


  Gtr II
   E  S  E    S  E  E  S  E  S  E    E   S  E  S  E  E  Q.
|---------------------------------|--------------------------|
|-12-12-13---12-12-12-12-13-12-12-|-12--12-13-12-12-10-12----|
|---------------------------------|--------------------------|
|---------------------------------|--------------------------|
|---------------------------------|--------------------------|
|---------------------------------|--------------------------|
|
| Gtr I
|  Q       Q        E  Q        E    E   Q        E  E  Q.
|---------------------------------|--------------------------|
|---------------------------------|--------------------------|
|---------------------------------|--------------------------|
|--7-------7--------7--7--------9-|-(9)--9-------10-10-10----|
|--7-------7--------7--7--------9-|-(9)--9-------10-10-10----|
|--7-------7--------7--7--------9-|-(9)--9-------10-10-10----|


   E  S  E    S  E  E  S  E  S  E    E   S  E  S  E  E  Q.
|---------------------------------|---------------------------|
|-12-12-13---12-12-12-12-13-12-12-|-12--12-13-12-12-10-12-----|
|---------------------------------|---------------------------|
|---------------------------------|---------------------------|
|---------------------------------|---------------------------|
|---------------------------------|---------------------------|
|
|  Q       Q        E  Q        E    E   Q        E  E  Q.
|---------------------------------|---------------------------|
|---------------------------------|---------------------------|
|---------------------------------|---------------------------|
|--7-------7--------7--7--------9-|-(9)--9-------10-10-10-----|
|--7-------7--------7--7--------9-|-(9)--9-------10-10-10-----|
|--7-------7--------7--7--------9-|-(9)--9-------10-10-10-----|


  Wx8
|--------|
|--------|
|--------|
|--------|
|--------|
|--------|


  E Q  Q   Q  E   E  E  E  E  E  Q  E   E Q  Q   Q  E   E  E  E  E  E  Q  E
|---------------|---------------------|---------------|---------------------|
|---------------|---------------------|---------------|---------------------|
|---------------|---------------------|---------------|---------------------|
|-9-9--9--10--9-|---14-14-14-14-15----|-9-9--9--10--9-|---14-14-14-14-15----|
|-9-9--9--10--9-|---14-14-14-14-15----|-9-9--9--10--9-|---14-14-14-14-15----|
|-9-9--9--10--9-|---14-14-14-14-15----|-9-9--9--10--9-|---14-14-14-14-15----|


  E Q  Q   Q  E   E  E  E  E  E  Q  E   E Q  Q   Q  E   E  E  E  E  E  Q  E
|---------------|---------------------|---------------|---------------------|
|---------------|---------------------|---------------|---------------------|
|---------------|---------------------|---------------|---------------------|
|-9-9--9--10--9-|---14-14-14-14-15----|-9-9--9--10--9-|---14-14-14-14-15----|
|-9-9--9--10--9-|---14-14-14-14-15----|-9-9--9--10--9-|---14-14-14-14-15----|
|-9-9--9--10--9-|---14-14-14-14-15----|-9-9--9--10--9-|---14-14-14-14-15----|


  E Q  Q   Q  E   E  E  E  E  E  Q  E   E Q  Q   Q  E   E  E  E  E  E  Q  E
|---------------|---------------------|---------------|---------------------|
|---------------|---------------------|---------------|---------------------|
|---------------|---------------------|---------------|---------------------|
|-9-9--9--10--9-|---14-14-14-14-15----|-9-9--9--10--9-|---14-14-14-14-15----|
|-9-9--9--10--9-|---14-14-14-14-15----|-9-9--9--10--9-|---14-14-14-14-15----|
|-9-9--9--10--9-|---14-14-14-14-15----|-9-9--9--10--9-|---14-14-14-14-15----|


  E Q  Q   Q  E   E  E  E  E  E  Q  E   E Q  Q   Q  E   E  E  E  E  E  Q  E
|---------------|---------------------|---------------|---------------------|
|---------------|---------------------|---------------|---------------------|
|---------------|---------------------|---------------|---------------------|
|-9-9--9--10--9-|---14-14-14-14-15----|-9-9--9--10--9-|---14-14-14-14-15----|
|-9-9--9--10--9-|---14-14-14-14-15----|-9-9--9--10--9-|---14-14-14-14-15----|
|-9-9--9--10--9-|---14-14-14-14-15----|-9-9--9--10--9-|---14-14-14-14-15----|


  E Q  Q   Q  E   E  E  E  E  E  Q  E   E Q  Q   Q  E   E  E  E  E  E  Q  E
|---------------|---------------------|---------------|---------------------|
|---------------|---------------------|---------------|---------------------|
|---------------|---------------------|---------------|---------------------|
|-9-9--9--10--9-|---14-14-14-14-15----|-9-9--9--10--9-|---14-14-14-14-15----|
|-9-9--9--10--9-|---14-14-14-14-15----|-9-9--9--10--9-|---14-14-14-14-15----|
|-9-9--9--10--9-|---14-14-14-14-15----|-9-9--9--10--9-|---14-14-14-14-15----|


  E Q  Q   Q  E   E  E  E  E  E  Q  E   E Q  Q   Q  E   E  E  E  E  E  Q  E
|---------------|---------------------|---------------|---------------------|
|---------------|---------------------|---------------|---------------------|
|---------------|---------------------|---------------|---------------------|
|-9-9--9--10--9-|---14-14-14-14-15----|-9-9--9--10--9-|---14-14-14-14-15----|
|-9-9--9--10--9-|---14-14-14-14-15----|-9-9--9--10--9-|---14-14-14-14-15----|
|-9-9--9--10--9-|---14-14-14-14-15----|-9-9--9--10--9-|---14-14-14-14-15----|


  Wx8
|--------|
|--------|
|--------|
|--------|
|--------|
|--------|


   Q   Q   E  Q   E     E   Q   E  Q   Q    Q  Q  E Q  E    E  Q  E Q  Q
|-------------------|---------------------|--------------|----------------|
|-------------------|---------------------|--------------|----------------|
|-------------------|---------------------|--------------|----------------|
|-10--10--10-10--10-|-(10)-10--10-10--10--|-9--9--9-9--9-|-(9)-9--9-9--9--|
|-10--10--10-10--10-|-(10)-10--10-10--10--|-9--9--9-9--9-|-(9)-9--9-9--9--|
|-10--10--10-10--10-|-(10)-10--10-10--10--|-9--9--9-9--9-|-(9)-9--9-9--9--|


  Q  Q  E Q  E    E  Q   E  E  Q.     Q  Q  E Q  E    E  Q   E  E  Q.
|--------------|--------------------|--------------|--------------------|
|--------------|--------------------|--------------|--------------------|
|--------------|--------------------|--------------|--------------------|
|-7--7--7-7--9-|-(9)-9--10-10-10----|-7--7--7-7--9-|-(9)-9--10-10-10----|
|-7--7--7-7--9-|-(9)-9--10-10-10----|-7--7--7-7--9-|-(9)-9--10-10-10----|
|-7--7--7-7--9-|-(9)-9--10-10-10----|-7--7--7-7--9-|-(9)-9--10-10-10----|


   Q   Q   E  Q   E     E   Q   E  Q   Q    Q  Q  E Q  E    E  Q  E Q  Q
|-------------------|---------------------|--------------|----------------|
|-------------------|---------------------|--------------|----------------|
|-------------------|---------------------|--------------|----------------|
|-10--10--10-10--10-|-(10)-10--10-10--10--|-9--9--9-9--9-|-(9)-9--9-9--9--|
|-10--10--10-10--10-|-(10)-10--10-10--10--|-9--9--9-9--9-|-(9)-9--9-9--9--|
|-10--10--10-10--10-|-(10)-10--10-10--10--|-9--9--9-9--9-|-(9)-9--9-9--9--|


  Q  Q  E Q  E    E  Q   E  E  Q.     Q  Q  E Q  E    E  Q   E  E  Q.
|--------------|--------------------|--------------|--------------------|
|--------------|--------------------|--------------|--------------------|
|--------------|--------------------|--------------|--------------------|
|-7--7--7-7--9-|-(9)-9--10-10-10----|-7--7--7-7--9-|-(9)-9--10-10-10----|
|-7--7--7-7--9-|-(9)-9--10-10-10----|-7--7--7-7--9-|-(9)-9--10-10-10----|
|-7--7--7-7--9-|-(9)-9--10-10-10----|-7--7--7-7--9-|-(9)-9--10-10-10----|


   Q   Q   E  Q   E     E   Q   E  Q   Q    Q  Q  E Q  E    E  Q  E Q  Q
|-------------------|---------------------|--------------|----------------|
|-------------------|---------------------|--------------|----------------|
|-------------------|---------------------|--------------|----------------|
|-10--10--10-10--10-|-(10)-10--10-10--10--|-9--9--9-9--9-|-(9)-9--9-9--9--|
|-10--10--10-10--10-|-(10)-10--10-10--10--|-9--9--9-9--9-|-(9)-9--9-9--9--|
|-10--10--10-10--10-|-(10)-10--10-10--10--|-9--9--9-9--9-|-(9)-9--9-9--9--|


  Q  Q  E Q  E    E  Q   E  E  Q.     Q  Q  E Q  E    E  Q   E  E  Q.
|--------------|--------------------|--------------|--------------------|
|--------------|--------------------|--------------|--------------------|
|--------------|--------------------|--------------|--------------------|
|-7--7--7-7--9-|-(9)-9--10-10-10----|-7--7--7-7--9-|-(9)-9--10-10-10----|
|-7--7--7-7--9-|-(9)-9--10-10-10----|-7--7--7-7--9-|-(9)-9--10-10-10----|
|-7--7--7-7--9-|-(9)-9--10-10-10----|-7--7--7-7--9-|-(9)-9--10-10-10----|


   Q   Q   E  Q   E     E   Q   E  Q   Q    Q  Q  E Q  E    E  Q  E Q  Q
|-------------------|---------------------|--------------|-----------------|
|-------------------|---------------------|--------------|-----------------|
|-------------------|---------------------|--------------|-----------------|
|-10--10--10-10--10-|-(10)-10--10-10--10--|-9--9--9-9--9-|-(9)-9--9-9--9---|
|-10--10--10-10--10-|-(10)-10--10-10--10--|-9--9--9-9--9-|-(9)-9--9-9--9---|
|-10--10--10-10--10-|-(10)-10--10-10--10--|-9--9--9-9--9-|-(9)-9--9-9--9---|


  Q  Q  E Q  E    E  Q   E  E  Q.     Q  Q  E Q  E    E  Q   E  E  Q.
|--------------|--------------------|--------------|--------------------||
|--------------|--------------------|--------------|-------------------o||
|--------------|--------------------|--------------|--------------------||
|-7--7--7-7--9-|-(9)-9--10-10-10----|-7--7--7-7--9-|-(9)-9--10-10-10----||
|-7--7--7-7--9-|-(9)-9--10-10-10----|-7--7--7-7--9-|-(9)-9--10-10-10---o||
|-7--7--7-7--9-|-(9)-9--10-10-10----|-7--7--7-7--9-|-(9)-9--10-10-10----||


Duration Legend
---------------
W - whole; H - half; Q - quarter; E - 8th; S - 16th; T - 32nd; X - 64th; a - acciaccatura
+ - note tied to previous; . - note dotted; .. - note double dotted
Uncapitalized letters represent notes that are staccato (1/2 duration)
Irregular groupings are notated above the duration line
Duration letters will always appear directly above the note/fret number it represents the
duration for.  Duration letters with no fret number below them represent rests.  Multi-
bar rests are notated in the form Wxn, where n is the number of bars to rest for.  Low
melody durations appear below the staff

Tablature Legend
----------------
 h   - hammer-on
 p   - pull-off
 b   - bend
 pb  - pre-bend
 r   - bend release (if no number after the r, then release immediately)
 /\  - slide into or out of (from/to "nowhere")
 s   - legato slide
 S   - shift slide
  - natural harmonic
[n]  - artificial harmonic
n(n) - tapped harmonic
 ~   - vibrato
 tr  - trill
 T   - tap
 TP  - trem. picking
 PM  - palm muting
\n/  - tremolo bar dip; n = amount to dip
 \n  - tremolo bar down
 n/  - tremolo bar up
/n\  - tremolo bar inverted dip
 =   - hold bend; also acts as connecting device for hammers/pulls
 <>  - volume swell (louder/softer)
 x   - on rhythm slash represents muted slash
 o   - on rhythm slash represents single note slash

Misc Legend
-----------
 |  - bar
||  - double bar
||o - repeat start
o|| - repeat end
*|  - double bar (ending)
 :  - bar (freetime)
 $  - Segno
 &  - Coda
Tempo markers -  = BPM(8/16=s8/s16), where s8 = swing 8ths, s16 = swing 16ths


***************************************************************************************
* Generated using Power Tab Editor by Brad Larsen - http://powertab.guitarnetwork.org *
***************************************************************************************
Tap to rate this tab
 
# A B C D E F G H I J K L M N O P Q R S T U V W X Y Z