Song name
# A B C D E F G H I J K L M N O P Q R S T U V W X Y Z

Misc Computer Games - Skyrim - Lute Track 4 tab

Title: Unknown
Artist: Jeremy Soule
Tabbed by : rolandroi

This is one of those instrumental pieces you hear from Skyrim's inns played by NPCs that 
has lutes. This is the shortest and fastest piece in Skyrim. You have to play it fast.

Those who's struggling figuring out where to put their left-hand fingers on the 
fretboard, i've included finger positions below the staffs based on how i play it.
                         1 = index finger
                         2 = middle finger
                         3 = ring finger
                         4 = pinky finger


No Capo
Difficulty : Intermediate
Tuning : Standard Tuning
Tempo : Very Fast
Key:
  . = staccato (detached, cut short)


e-----------------------2-3-2-0--|-0-2-3-5-3-2-3-2----------|
B---------5---5-3-2-3-5----------|-----------------5-3-5----|
G-----2--------------------------|-----2--------------------|
D-2.-----------------------------|-2.-----------------------|
A--------------------------------|--------------------------|
E--------------------------------|--------------------------|
  1   1   4   4 2 1 2 4 1 2 1      1 2 2 4 2 1 2 1 4 2 4
                                       1


e-----------------------2-3-2-0--|-0---7-5-----5-------------------|
B---------5---5-3-2-3-5----------|---8-----8-7---8-7-5-8-7-5---7-5-|
G-----2--------------------------|---------------------------7-----|
D-2.-----------------------------|-----0---------------------------|
A--------------------------------|-7.------------------------------|
E--------------------------------|---------------------------------|
  1   1   4   4 2 1 2 4 1 2 1      2 4 3 1 4 3 1 4 3 1 4 3 1 3 4 1


e-----------------------2-3-2-0--|-0-2-3-5-3-2-3-2----------|
B---------5---5-3-2-3-5----------|-----------------5-3-5----|
G-7-6-2--------------------------|-----2--------------------|
D--------------------------------|-2.-----------------------|
A-7.-----------------------------|--------------------------|
E--------------------------------|--------------------------|
  3 1 1   4   4 2 1 2 4 1 2 1      1 2 2 4 2 1 2 1 4 2 4
  2                                    1


e-----------------------2-3-2-0--|
B---------5---5-3-2-3-5----------|
G-----2--------------------------|
D-2.-----------------------------|
A--------------------------------|
E--------------------------------|
  1   1   4   4 2 1 2 4 1 2 1


e-0---7-5-----5-------------------------------------------------------------|
B---8-----8-7---8-7-5-8-7-5---7-5------5------------------------------------|
G---------------------------7-----7--6----7--6--4--7--6--4-----6--4---------|
D-----0-----------------------------------------------------7--------7----5-|
A-7.------------------------------------------------------------------------|
E---------------------------------------------------------------------------|
  2 4 3 1 4 3 1 4 3 1 4 3 1 3 4 1 3  2 1  3  2  1  4  3  1  4  3  1  4    1


e------------|
B------------|
G------6-----|
D-----7------|
A----7-------|
E---5--------|
    1342



I'm your best drinking buddy, let's get some mead!
Just let me know if you find any mistakes.
Tap to rate this tab
 
# A B C D E F G H I J K L M N O P Q R S T U V W X Y Z