Song name
# A B C D E F G H I J K L M N O P Q R S T U V W X Y Z

Misc Computer Games - The Yawhg - Oceans tab

-------------------------------------------------------------------------------
                             Oceans - The Yawhg Soundtrack
-------------------------------------------------------------------------------
Tabbed by: Rustypeanut
E-mail: Rustypeanut@live.co.uk

Tuning: Standard (Capo 4th Fret)

-----
Intro*
-----
      (Am)
E|---------------------------------------|
B|---------1-------1-------1-------1-----|
G|-----2-------2-------2-------2---------|  x2
D|-------2-------2-------2-------2-------|
A|---0-------0-------0-------0-----------|
E|---------------------------------------|

      (C)
E|---------------------------------------|
B|---------1-------1-------1-------1-----|
G|-----0-------0-------0-------0---------|  x2
D|-------2-------2-------2-------2-------|
A|---3-------3-------3-------3-----------|
E|---------------------------------------|

*All chord shapes use this picking pattern throughout the song, minor variations can be made.

-----
Verse
-----
Am
I had a dream last night,
                  C
the worst part of you came to life.

Am
It was a curious dream
           C
unlike any other scene

i'd ever seen in my life.


You told me not to run
that I would just be blinded
by the sun.
You tried to comfort me
said any other day I like,
that I could leave.

-------------
Chorus melody.
-------------
      (G)
E|---------------------------------------|
B|---------3-------3-------3-------3-----|
G|-----0-------0-------0-------0---------|  x2
D|-------0-------0-------0-------0-------|
A|---2-------2-------2-------2-----------|
E|---------------------------------------|

      (F)
E|---------------------------------------|
B|---------1-------1-------1-------1-----|
G|-----2-------2-------2-------2---------|  x2
D|-------3-------3-------3-------3-------|
A|---3-------3-------3-------3-----------|
E|---------------------------------------|


G                  F
And you grabbed my neck
               C
I grabbed your thighs.
G          F
Not realizing your
            C
clever disguise.
G F
I looked into a strangers eyes
C
that night.

Am
And then you dragged me to the shore,
               C
said you had a little plan in store.
Am
Then you pushed me in
                C
said you didn't want me anymore.

G     F         C
And you drowned me... < Repeat until satisfied.
-------
 - - -
-------
So this is my first tab, and I know that it might not be 100% perfect but it's close 
enough to be able to play this beautiful song with ease.
Tap to rate this tab
# A B C D E F G H I J K L M N O P Q R S T U V W X Y Z