Song name
# A B C D E F G H I J K L M N O P Q R S T U V W X Y Z

Misc Computer Games - Super Mario Land - Coin Star Maze tab

I've been looking everywhere for a tab for this song and haven't found one at all. 
So, I got sad for a bit and then a few months later I was messing around with a 
scale and boom! I figured it out. You can play this anywhere you want to and it'll 
still sound great. Fuck it, you don't even have to use standard tuning. Well, peace off and enjoy.

e|------8---5-----5--8--5---8---5-----5--8--5--|
B|-------------8-------------------8-----------|
G|*-------------------------------------------*| Intro part 1
D|*-------------------------------------------*|
A|---------------------------------------------|
E|---------------------------------------------|

e|-----10---7-----7--10--7---10---7-----7--10--7--|
B|------------10---------------------10-----------|
G|*----------------------------------------------*| Intro part
D|*----------------------------------------------*|      2
A|------------------------------------------------|
E|------------------------------------------------|

e|--------9--7--5-------5-----------|
B|---5/7-----------5/7-----7--5--3--|
G|*--------------------------------*| Main riff
D|*--------------------------------*|
A|----------------------------------|
E|----------------------------------|

Order:
Intro part 1 2x
Intro part 2 2x
Intro part 1 2x
Intro part 2 2x
Main riff 6x then repeat

Legend:
/= slide up on neck
*= repeat
Tap to rate this tab
# A B C D E F G H I J K L M N O P Q R S T U V W X Y Z