Song name
# A B C D E F G H I J K L M N O P Q R S T U V W X Y Z

Misc Computer Games - Rogue Legacy - Lamprey tab

This is the song that plays during the boss Ponce De Leon (named after the Spanish
explorer) from the game Rogue Legacy. It starts off as a meh 8-bit chiptune but it has this
killer riff in the mid section. If you have a pitch-shifter effect of some sort, it 
would work very well.

First part (Refrain)
There are two melodies or at least multiple simultaneous notes here. This is just the
gist of it.

e-8-7------7--8--10-------10-12--|-------8-----------8----------|
b-----10--------------9-10-------|-10-10---10-9-9-10---10-------|
G--------------------------------|------------------------------|
D--------------------------------|------------------------------|
A--------------------------------|------------------------------|
E--------------------------------|------------------------------|

e----7--8--10--------10-12---|-------8-----------8----------|
b-10------------9-10---------|-10-10---10-9-9-10---10-------|
G----------------------------|------------------------------|
D----------------------------|------------------------------|
A----------------------------|------------------------------|
E----------------------------|------------------------------|

Second Part (Guitar Riff / Chorus)

Use a pitch bending effect and maybe some type of Fuzz here if you have them available.
~~ around a note means vibrato.

e----------------------------------------------------------------------|
b----------------------------------------------------------------------|
G----------------------------------------------------------------------|
D-----~7~---5h7-5------------------------------------------------------|
A---7-------------8-7h8----5--7-8~7~---5h7h8p7p5-----------5-7-5-------|
E-5----------------------------------------------8---5-7-8-------7-8---|

e------------|
b------------|
G------------|
D------------|
A----------7-|
E-5--7-8-7---|

This riff repeats two more times but the first play through is different to the second
two, which are like this;

e----------------------------------------------------------------------|
b----------------------------------------------------------------------|
G----------------------------------------------------------------------|
D-----~7~---5h7-5------------------------------------------------------|
A---7-------------8-7h8----5--7-8~7~---5h7p5-----5h7------5-7-5--------|
E-5------------------------------------------8-7-------7-8------8-7----|

e------------|
b------------|
G------------|
D------------|
A------------|
E-5--7-8-7-5-|

I hope you enjoy learning this awesome song, and I hope the tab is easy to read and what
not. -BMB
Tap to rate this tab
 
# A B C D E F G H I J K L M N O P Q R S T U V W X Y Z