Song name
# A B C D E F G H I J K L M N O P Q R S T U V W X Y Z

Misc Computer Games - Animal Crossing New Leaf - 1 Am tab

-------------------------------------------------------------------------------
                             1 am - Animal Crossing: New Leaf
-------------------------------------------------------------------------------
Tabbed by: Therisingrefugee

Tuning: Standard EADGBe


Intro

e|------------------------------|
B|-------------------0----------|
G|-------------2----------------|
D|--------6---------------------|
A|------------------------------|
E|------------------------------|

Main song

e|-----------------------|--------------4--------|------------------------|-----------2---------|
B|-----------------4-----|--------4--2--------0--|--(0)-------------4-----|--------4---------0--|
G|-----------------------|-----4-----------------|------------------------|-----4---------------|
D|--------6-----4-----4--|--2--------------------|---------6-----4-----4--|--2------------------|
A|-----4-----2-----------|-----------------------|------4-----2-----------|---------------------|
E|--2--------------------|-----------------------|---2--------------------|---------------------|

Let Ring ---------------------------------------------------------------------------------------|

e|------------------------|--------------4-----------|------------------------|--------------4--|
B|--(0)-------------4-----|--------4--2-----------0--|--(0)-------------4-----|--------4--2-----|
G|------------------------|-----4--------------2-----|------------------------|-----4-----------|
D|---------6-----4-----4--|--2--------------6--------|---------6-----4-----4--|--2--------------|
A|------4-----2-----------|--------------------------|------4-----2-----------|-----------------|
E|---2--------------------|--------------------------|---2--------------------|-----------------|

Let Ring ---------------------------------------------------------------------------------------|

e|--------4--------10--|------------------16--|--------4--------10--|------------------14--|
B|-----3--------7------|----------15--13------|-----3--------7------|----------15--13------|
G|-----------6---------|------16--------------|-----------6---------|------16--------------|
D|--4------------------|--14------------------|--4------------------|--14------------------|
A|---------------------|----------------------|---------------------|----------------------|
E|---------------------|----------------------|---------------------|----------------------|

Let Ring ----------------------------------------------------------------------------------|

e|--------4--------10--|------------------16--|-------4--------10--|------------------16---------|
B|-----3--------7------|----------15--13------|----3--------7------|----------15--13------------0|
G|-----------6---------|------16--------------|----------6---------|------16-----------------2---|
D|--4------------------|--14------------------|--4-----------------|--14------------------6------|
A|---------------------|----------------------|--------------------|-----------------------------|
E|---------------------|----------------------|--------------------|-----------------------------|

Let Ring ----------------------------------------------------------------------------------------|

Repeat as many times as you want skipping the intro every following time.
Tap to rate this tab
# A B C D E F G H I J K L M N O P Q R S T U V W X Y Z