Song name
# A B C D E F G H I J K L M N O P Q R S T U V W X Y Z

Misc Computer Games - Heroes V Of Might And Magic - Academy Theme tab

Tabbed by: Mimak

e|--------------------------------------------------0----------|
B|--0-------0-------0-------------------------0--2-------3--2--|
G|-----------------------2-0-------------2---------------------|
D|-------4-------4------------4----2--4------------------------|
A|-------------------------------------------------------------|
E|-------------------------------------------------------------|

e|------------------------------------2--2----0--3----2-0-------------------|
B|--0-------0-------0--------------0-----------------------3---2--3-2-5-3-2-|
G|-----------------------2-0------------------------------------------------|
D|-------4-------4------------4---------------------------------------------|
A|--------------------------------------------------------------------------|
E|--------------------------------------------------------------------------|
Repeat once from the beginning.

e|--0--2-------2-------2---0------------------------0---------|
B|----------0-------0---------3--2---0-2------0-2-------3--2--|
G|----------------------------------------2-------------------|
D|------------------------------------------------------------|
A|------------------------------------------------------------|
E|------------------------------------------------------------|

e|---------------------0----------------------0-----------------------------|
B|--0--2---4----2--0-------3--2---3----2--0------3-2--0---------------------|
G|---------------------------------------------------------2-0--------------|
D|--------------------------------------------------------------4---0-------|
A|---------------------------------------------------------------------0--2-|
E|--------------------------------------------------------------------------|

-----------------|----7-------7-------7-------------------5---7-9--12--10-9
-----------------|---------7-------7-------10-9--7---5-7-------------------
-----------------|---------------------------------------------------------
-----------------|---------------------------------------------------------
----4----5----7--|---------------------------------------------------------
-----------------|---------------------------------------------------------

--9--7-------7-------7-------------7--14-14---12--15---14-12--10--|
----------7-------7-------10-9--7---------------------------------|
------------------------------------------------------------------|
------------------------------------------------------------------|
------------------------------------------------------------------|
------------------------------------------------------------------|

e|--12-14-------14-------14---12-10--9---7--9---5---7-9---12---10--9--|
B|----------12-------12-----------------------------------------------|
G|--------------------------------------------------------------------|
D|--------------------------------------------------------------------|
A|--------------------------------------------------------------------|
E|--------------------------------------------------------------------|

e|--7-------7-------7-------------7--14-14---12--15---14-12--10--|
B|-------7-------7-------10-9--7---------------------------------|
G|---------------------------------------------------------------|
D|---------------------------------------------------------------|
A|---------------------------------------------------------------|
E|---------------------------------------------------------------|

e|--12-14-------14-------14---12-10--9---7--9---5---7-9---12---10--9--|
B|----------12-------12-----------------------------------------------|
G|--------------------------------------------------------------------|
D|--------------------------------------------------------------------|
A|--------------------------------------------------------------------|
E|--------------------------------------------------------------------|


e|--7-9--11---9-7--12---10-9--10---9-7--12---10--9---7---5--3---2-----------|
B|------------------------------------------------------------------3-----0-|
G|---------------------------------------------------------------------2----|
D|--------------------------------------------------------------------------|
A|--------------------------------------------------------------------------|
E|--------------------------------------------------------------------------|
Tap to rate this tab
 
# A B C D E F G H I J K L M N O P Q R S T U V W X Y Z