Song name
# A B C D E F G H I J K L M N O P Q R S T U V W X Y Z

Misc Computer Games - Gta Liberty City Stories - The Dark March tab

Part 1:
e|----------------------------------------------------|
B|----------------------------------------------------|
G|----------------------------------------------------|
D|---------------------3------------------------------|
A|--0-5-5-5-7-8--8-7-5---1----0-5-5-5-7-8--8-10-8-8-7-|
E|----------------------------------------------------|

e|----------------------------------------------------|
B|----------------------------------------------------|
G|----------------------------------------------------|
D|---------------------3------------------------------|
A|--0-5-5-5-7-8--8-7-5---1----0-5-5-5-7-8--8-10-8-7~~-|
E|----------------------------------------------------|

Part 2:
e|-------------------------------------------|
B|-------------------------------------------|
G|-------------------------------------------|
D|-5-5-5-8-7-5-3-3-3-2-0---------------------|
A|-----------------------4-4-4-5-7--7-5--7-5-|
E|-------------------------------------------|x2

Part 3:
e|-----------------------------------------------------|
B|-----------------------------------------------------|
G|-----------------------------------------------------|
D|-----------------------------------------------------|
A|-0-5-5-5-7-8--8-10--8-8-7----0-5-5-5-7-8--8-10-8-7~~-|
E|-----------------------------------------------------|

Part 4:
e|----------------------------------------------------|
B|----------------------------------------------------|
G|-------------------2-0------------------------------|
D|-5-5-5-8-7-5-3-3-3-----3----------------------------|
A|-------------------------7-7-7-10-8-7-5-5-5-7-8-10--|
E|----------------------------------------------------|

e|-------------------------------------------|
B|-------------------------------------------|
G|-------------------2-0---------------------|
D|-5-5-5-8-7-5-3-3-3-----3-------------------|
A|-------------------------7-7-7-10-8-7-5~~--|
E|-------------------------------------------|

That's it.
This is my first ever tab and the first song I managed to find out by myself. Hope you 
like it. Comments are appreciated!
Enjoy! :)
Tap to rate this tab
# A B C D E F G H I J K L M N O P Q R S T U V W X Y Z