Song name
# A B C D E F G H I J K L M N O P Q R S T U V W X Y Z

Misc Computer Games - Plants Vs Zombies 2 - Wild West Theme tab

Tuning: Standard EADGBE

e|----------------------------|----------------------------|
b|----------------------------|----------------------------|
g|----------------------------|----------------------------|
D|--------------2----0--2-----|---------------2--4--0--5-6-|
A|----0--2-3--3----3------3---|--0--2-3--3-----------------|
E|----------------------------|----------------------------|

e|----------------------------|----------------------------|
b|----------------------------|----------------------------|
g|-------5----7b--5----5------|----------------------------|
D|----7----7--------7----1-0--|-----------0----------------|
A|----------------------------|----0--3-0---1--------------|
E|----------------------------|----------------4----5------|


Tabs by: Mikkel Rise
Tap to rate this tab
 
# A B C D E F G H I J K L M N O P Q R S T U V W X Y Z