Song name
# A B C D E F G H I J K L M N O P Q R S T U V W X Y Z

Misc Computer Games - Metro - Last Light Theme tab

Well, this is my first tab. I hope this sounds good for you. 
For me it's really accurate. It's from the start of the song to the 0:50. 


NOTE: The first note it's a E and it's octave in the 2nd fret on D string. 
It sounds slighlty after the open E string. 
Basically, it's not at the same time. 
Hear the OST and you will understand me.

Rythm guitar

e|------------|-----------------------------|
B|------------|-----------------------------|
G|------------|-----------------------------|
D|---2--2/5---|--------4--------2--------1--|
A|------------|-----3--------2--------0-----|
E|--0---------|--5--------3--------2--------|

(Lead Guitar comes in this part)
e|------------|---------------------------------| 
B|------------|---------------------------------|
G|------------|---------------------------------|
D|---2--2/5---|--7--5--4----5--4--2----4-----1--|
A|------------|---------------------------------|
E|--0---------|--0----------3----------2--------|

e|-------------------------------------------------|
B|-------------------------------------------------|
G|-------------------------------------------------|
D|--2--------2--------2--------2--------2--------2-| And this, 
A|-------------------------------------------------| so on to
E|--0--0--0--0--0--0--0--0--0--0--0--0--0--0--0--0-| the end. Here finishes
                                                     rythm part.


Lead Guitar

e|------------|---------------------------------| 
B|---5--5/8---|--10--8--7----8--7--5----7----4--|
G|------------|---------------------------------|
D|------------|---------------------------------|
A|------------|---------------------------------|
E|------------|---------------------------------|


e|-------------------------|-------------------------|
B|--5--5--8--8--1--1--0--0-|--5--5--8--8--1--1--0----|
G|-------------------------|-----------------------0-|
D|-------------------------|-------------------------|
A|-------------------------|-------------------------|
E|-------------------------|-------------------------|


e|---------------------------|------------------------|
B|----5--8--8--10--10--7--7--|-8--8--5--5--7--7--4--4-|
G|---------------------------|------------------------|
D|--2------------------------|------------------------|
A|---------------------------|------------------------|
E|---------------------------|------------------------|

Thank you! Rate please!!
Tab by Maks Dutov
Tap to rate this tab
# A B C D E F G H I J K L M N O P Q R S T U V W X Y Z