Song name
# A B C D E F G H I J K L M N O P Q R S T U V W X Y Z

Misc Computer Games - Rainbow Road - Mario Kart Double Dash tab

Rainbow Road (Mario Kart Double Dash version)

Composers: Kenta Nagata & Shinobu Tanaka
Tabbed by MetalHead2475

I used this score to help me out on this tab.
http://musescore.com/user/58013/scores/87520#

Riff 1
e|--------------------------------------------------------|
B|--------------------------------------------------------|
G|-5--------7--------8--------10--------------------------|
D|-5--------7--------8--------10--------------------------|
A|--------------------------------------------------------|
E|--------------------------------------------------------|

Riff 2
e|--------------------------------------------------------|
B|------5-6---5-------5-----------5-6p5-------------------|
G|--5-7---------7-5-7-----------5-------5---5-------------|
D|----------------------5-----7-----------7---------------|
A|--------------------------------------------------------|
E|--------------------------------------------------------|

e|---------------------------------------8----7-8--10-----|
B|------5-6---5-------5--8-----10--10-8-------------------|
G|--5-7---------7-5-7-------------------------------------|
D|--------------------------------------------------------|
A|--------------------------------------------------------|
E|--------------------------------------------------------|

e|--------------------------------------------------------|
B|------5-6---5-------5-----------5-6p5-------------------|
G|--5-7---------7-5-7-----------5-------5---5-------------|
D|----------------------5-----7-----------7---------------|
A|--------------------------------------------------------|
E|--------------------------------------------------------|

e|--------------------------------------------------------|
B|--8--8-6--5---8--8-5------------------------------------|
G|------------5---------5---5-----------------------------|
D|------------------------7-------------------------------|
A|--------------------------------------------------------|
E|--------------------------------------------------------|

Riff 3
e|--------6----------------6-------5----------------------|
B|----6-8--p8-6--6-----6-8--8-6---------------------------|
G|--7-----------7----7----------77------------------------|
D|--------------------------------------------------------|
A|--------------------------------------------------------|
E|--------------------------------------------------------|

e|------7-8p7------------7-8p7----------------------------|
B|----8-------8--8-----8-------8----8---------------------|
G|--9-----------9----9-----------99-----------------------|
D|--------------------------------------------------------|
A|--------------------------------------------------------|
E|--------------------------------------------------------|

e|--------6----------------6-------5----------------------|
B|----6-8--p8-6--6-----6-8--8-6---------------------------|
G|--7-----------7----7----------77------------------------|
D|--------------------------------------------------------|
A|--------------------------------------------------------|
E|--------------------------------------------------------|

e|--------------------------------------------------------|
B|--6----------------8------------------------------------|
G|--5----------------7------------------------------------|
D|--------------------------------------------------------|
A|--------------------------------------------------------|
E|--------------------------------------------------------|


Riff 4
e|--------------------------8------7--8--10-10--8-8-------|
B|--------8-6---5-----------------------------------------|
G|----------------7---5---5-------------------------------|
D|--------------------------------------------------------|
A|--------------------------------------------------------|
E|--------------------------------------------------------|

e|--8-----------------------------------------------------|
B|-----8-8------6--5--------------------------------------|
G|--------------------5h7-----------4---------------------|
D|--------------------------------------------------------|
A|--------------------------------------------------------|
E|--------------------------------------------------------|

e|--------------------------8------7--8--10-10--8-8-------|
B|--------8-6---5-----------------------------------------|
G|----------------7---5---5-------------------------------|
D|--------------------------------------------------------|
A|--------------------------------------------------------|
E|--------------------------------------------------------|

e|--10h12--------13-12------------------------------------|
B|---------------------13-15--------12--------13----------|
G|--------------------------------------------------------|
D|--------------------------------------------------------|
A|--------------------------------------------------------|
E|--------------------------------------------------------|


Repeat until the race ends.
Hope you enjoyed this tab, let me know if you have any improvements!
Thanks!
Tap to rate this tab
 
# A B C D E F G H I J K L M N O P Q R S T U V W X Y Z