Song name
# A B C D E F G H I J K L M N O P Q R S T U V W X Y Z

Misc Computer Games - Final Fantasy Xiii - Serahs Theme tab

-------------------------------------------------------------------------------
                             Final Fantasy XIII - Serah's Theme
-------------------------------------------------------------------------------
Tabbed by: The Man

Tuning:EADGBe

Verses:
e|----------------------|-------------|----------------|--------------|
B|12-13-12-10-----------|-------------|----------------|--------------|
G|----------------12----|--12-10-9-7-9|----------12-7\0|----------12-7|
D|--------------------10|-------------|--7-9-10--------|--7-9-10------|
A|----------------------|-------------|----------------|--------------|
E|----------------------|-------------|----------------|--------------|

e|----------------------|-------------|--------------------|
B|12-13-12-10-----------|-------------|----------------8-10|
G|----------------12----|--12-10-9-7-9|----------12-7------|
D|--------------------10|-------------|--7-9-10------------|
A|----------------------|-------------|--------------------|
E|----------------------|-------------|--------------------|

Chorus:
e|--------------------|-----------------------|--------------|------------------------|
B|13---12-10----------|-13---12-13-15---------|-16---15-13-11|------11-13---15-16-13--|
G|-------------12-----|---------------------12|--------------|--12--------------------|
D|------------------10|-----------------------|--------------|------------------------|
A|--------------------|-----------------------|--------------|------------------------|
E|--------------------|-----------------------|--------------|------------------------|

Cmaj7   Asus2     G     C   G                C
Make my wish come true, let darkness fade to light

Am      C                  G     Am      C        G    C  
Show me there's still hope,      show me it's not o  - ver

Cmaj7   Asus2  G    C   G                 C
Battles we can win, our struggle lies within

Am      C       G         Am
Will we live to greet the dawn?

Am            G     C    Am            G
Love will not leave you, hate will not heal you

Cm         Gm           Cm    Gm    Cm
Promise me one day that peace shall reign



************************************

| /   slide up
| \   slide down
| h   hammer-on
| p   pull-off
| ~   vibrato
| +   harmonic
| x   Mute note
| b   Bend
| pb  Pre-bend
| br  Bend release
| pbr Pre-bend release
| brb Bend release bend

************************************
Tap to rate this tab
# A B C D E F G H I J K L M N O P Q R S T U V W X Y Z