Song name
# A B C D E F G H I J K L M N O P Q R S T U V W X Y Z

Misc Computer Games - Spelunky - Mines B Theme tab

Spelunky - Mines B Theme
Composed by Eirik Suhkre
Tabbed by Nik Sudan

Steady Tempo

e|----------------|--9---8---7---6-|----------------|----------------|
B|----------------|10--9---8---7---|6---------------|-----------4----|
G|------8---------|----------------|----------------|----------------|
D|----8-----------|----------------|----------------|----------------|
A|--6-------------|----------------|----------------|----------------|
E|----------------|----------------|----------------|----------------|

e|----------------|--9---8---7---6-|----------------|----------------|
B|----------------|10--9---8---7---|6---------------|----------------|
G|------8---------|----------------|----------------|----------------|
D|----8-----------|----------------|----------------|----------------|
A|--6-------------|----------------|----------------|----------------|
E|----------------|----------------|----------------|----------------|

e|----------------|2-4-1-2---------|----------------|4-6-2-4-1-2-1---|
B|------4---------|--------4-6-2-4-|------4---------|--------------4-|
G|----3-----------|----------------|----3-----------|----------------|
D|--1-------------|----------------|--1-------------|----------------|
A|----------------|----------------|----------------|----------------|
E|----------------|----------------|----------------|----------------|

e|----------------|----------------|----------------|----------------|
B|----------------|----------------|----------------|----------------|
G|----------------|----------------|----------------|----------------|
D|----------------|----------------|----------------|----------------|
A|----------------|----------------|----------------|----------------|
E|----------------|----------------|----------------|----------------|

e|3-2-3-----------|------------3---|5---5-----------|--------------5-|
B|------------3---|------3---------|--4-------------|--------4-6-7---|
G|--------------4-|----------------|------------5---|5-7-5-7---------|
D|----------------|----------------|--------------7-|----------------|
A|----------------|----------------|----------------|----------------|
E|----------------|----------------|----------------|----------------|

e|3-2-3-----------|------------3---|5-3-5-----------|----------------|
B|------------3---|------3---------|----------------|----------------|
G|--------------4-|----------------|----------------|----------------|
D|----------------|----------------|----------------|----------------|
A|----------------|----------------|----------------|----------------|
E|----------------|----------------|----------------|----------------|

e|3---------------|----------------|----------------|----------------|
B|----------------|----------------|----------------|----------------|
G|----------------|----------------|2---------------|----------------|
D|----------------|----------------|----------------|----------------|
A|----------------|----------------|----------------|----------------|
E|----------------|----------------|----------------|----------------|

e|3---------------|----------------|----------------|----------------|
B|----------------|----------------|----------------|----------------|
G|----------------|----------------|0---------------|----------------|
D|----------------|----------------|----------------|----------------|
A|----------------|----------------|----------------|----------------|
E|----------------|----------------|----------------|----------------|
Tap to rate this tab
# A B C D E F G H I J K L M N O P Q R S T U V W X Y Z