Song name
# A B C D E F G H I J K L M N O P Q R S T U V W X Y Z

Misc Computer Games - Pokemon X Y - Professor Sycamore Theme tab

(Capo 1)
 
   Gm        F      Gm         F    D#        E         A#    Dm
e|-----------------------------------------------------------------|
B|-----------------------------------------------------------------|
G|--------------------------------------------5----------7---------|
D|-5-----/8--7--5-------------------5-----/8-----7-----------------|
A|---------------/8--5---------5---------------------8-------------|
E|----------------------6---8--------------------------------------|

   D#                Gm                    A                Gm   D
e|------------------------------------------------9----------------|
B|------------6-8-10-11--10-11-10-8---8-10-10--11--11--10-8-10-----|
G|-8----5-7-8------------------------------------------------------|
D|-----------------------------------------------------------------|
A|-----------------------------------------------------------------|
E|-----------------------------------------------------------------|
                  
   Gm     F         Gm    F    D#    E          A#       Dm
e|-----------------------------------------------------------------|
B|-----------------------------------------------------------------|
G|-----------------------------------------------7-----------------|
D|-/5--------------------------/5--------5---8---------------------|
A|--------8-----8---5----------------8-----------------------------|
E|-----------8-----------------------------------------------------|

   D#                 Gm                 F               Gm
e|-----------------------------------------------------------------|
B|---------------8------------------8------------------------------|
G|-8----7-5-7-8----8--7---5---5--7---------------------------------|
D|--------------------------8---------5-/7----8-10-8---7--5--------|
A|-----------------------------------------------------------------|
E|-----------------------------------------------------------------|
Tap to rate this tab
# A B C D E F G H I J K L M N O P Q R S T U V W X Y Z