Song name
# A B C D E F G H I J K L M N O P Q R S T U V W X Y Z

Misc Computer Games - Ratchet And Clank Future A Crack In Time - Pirate Radio 22 tab

Pirate Radio 22 - Bernilus Sector 3
Boris Salchow
Ratchet and Clank  Future A Crack In Time soundtrack

There is a track of this song which is not on the tab, because it is a keyboard. I 
recommend listen to the song that I leave below because of the confusing time 
intervals.
MAIN RIFF
e|---------------------------------------------------------------|
B|---------------------------------------------------------------|
G|--7--9h------7--9h------7--9h------9---7---4-------------------|
D|--7--9h------7--9h------7--9h------9---7---4-------------------|   x4
A|--7----------7----------7----------7---5---2-------------------|
E|---------------------------------------------------------------|

After have played one, harder drums begins (1.14), and after have played Main Riff 
twice play the 2nd Riff (1.27)
SECONDARY RIFF
e|---------------------------------------------------------------|
B|--14--16~------14--16~------14--16~\------16--14--11-----------|
G|---------------------------------------------------------------|
D|---------------------------------------------------------------|   x2
A|---------------------------------------------------------------|
E|---------------------------------------------------------------|

In 1.41, the keyboard starts, after have played 2nd Riff once.
The are some effects between 1.57 and 2.08. After those effects, Main Riff is played:

MAIN RIFF x4 - Keyboard x3 (starts with 2nd main riff played) - Secondary Riff x2 
(After first keyboards) - Only effects (3.17)

Main Riff in 3.30 - Keyboards and Secondary Riffs after once Main Riff.

MAIN FINAL RIFF
e|---------------------------------------------------------------|
B|---------------------------------------------------------------|
G|--9---7---4------7--9h------7--9h------7--9h-------------------|
D|--9---7---4------7--9h------7--9h------7--9h-------------------|  
A|--7---5---2------7----------7----------7-----------------------|
E|---------------------------------------------------------------|

SECONDARY FINAL RIFF
e|---------------------------------------------------------------|
B|--16--14--11------14--16~------14--16~------14--16~------------|
G|---------------------------------------------------------------|
D|---------------------------------------------------------------|  
A|---------------------------------------------------------------|
E|---------------------------------------------------------------|


All time intervals are taken from this video. I recommend use the tab comparing with the video.
http://www.youtube.com/watch?v=DL55jn1fWtY&list=PL62F94113EF1F37A8

Please rate and comment, of course if there is any mistake, I will look over it 
and correct it if it's wrong :)

Enjoy! 

PD: sorry if my English is too bad, I'm Spanish :)


| /  slide up
| \  slide down
| h  hammer-on
| p  pull-off
| ~  vibrato
| +  harmonic
| x  Mute note

                                             http://borissalchow.com/
Tap to rate this tab
# A B C D E F G H I J K L M N O P Q R S T U V W X Y Z