Song name
# A B C D E F G H I J K L M N O P Q R S T U V W X Y Z

Misc Computer Games - League Of Legends Theme tab

|---------2-3--7--3-2-2-----------------------|
|-0-3-5---------------3------1-0-1------------|
|---------------------2----------2------------|
|---------------------------------------------|
|--------------------------------0------------|
|---------------------------------------------|


|-0-3-5--7-8----8-10----10--12------------|
|------------5-------7--------------------|
|------------5-------7--------------------|
|-----------------------------------------|
|-----------------------------------------|
|-----------------------------------------|
Tap to rate this tab
# A B C D E F G H I J K L M N O P Q R S T U V W X Y Z