Song name
# A B C D E F G H I J K L M N O P Q R S T U V W X Y Z

Misc Computer Games - The Last Of Us - All Gone Its Me tab

(/) Slide Up  (\) Slide Down  (h) Hammer On  (p) Pull Off  (b) Bend (r) Release (v) Vibrato


This beginning part is mostly by feel. The 8 0 section is just hammer on/pull off from 
the 8th fret very gently!
E|----------------------------------------------------------------------------------------|
B|--5-/-8-0-8-0-8-0-8-0-8-0-8-0-7---------5(h)5(h)5(h)-/-8-0-8-0-8-0-8-0-8-0-7(h)8(p)7----|
G|----------------------------------------------------------------------------------------|
D|----------------------------------------------------------------------------------------|
A|----------------------------------------------------------------------------------------|
E|----------------------------------------------------------------------------------------|

                                                          pull off 7 to 5 ghost note here

E|-----------------------------------------------------------------------------------|
B|--8-\-5----------3---1(h)3(p)1---0-----------------5-/-8--8--7-----5-----8-----7---|
G|------------------------------------0----------------------------------------------|
D|---------------------------------------2-------------------------------------------|
A|------3------------------------------------------------7-----5---------------------|
E|---------------------------------0---------------------------------------8-----7---|



E|--------------------------------------------------------------------------------------|
B|--5----8----------7-----(p)5--4--5---7---8----/--12-----12----------------------------|
G|-------5---5------5-------------------------------------------------------------------|
D|-------7-7--------7-----------4-------------------------------------------------------|
A|-------0------------------------------------------------------------------------------|
E|--------------------------------------------------------0-----------------------------|

If you are a bit confused ask questions or watch it here!

http://www.youtube.com/watch?v=kEG_f7YsXJA
Tap to rate this tab
# A B C D E F G H I J K L M N O P Q R S T U V W X Y Z