Song name
# A B C D E F G H I J K L M N O P Q R S T U V W X Y Z

Misc Computer Games - Silent Hill - Theme Of Laura 2000 Outro tab

This is the acoustic ending of the 2000 Tokyo Game Show Autumn trailer version of Theme of Laura. 
The rest of the song is basically the same as the version from the game except 
there is no lead guitar track.


                Guitar 1 
(let Ring)
e|-----------------------------------|
B|-----------------------------------|
G|------0-------0-------0-------0----|
D|----5---5---4---4---2---2---1---1--| x8
A|--7-------5-------3-------2--------|
E|-----------------------------------|


                 Guitar 2 
(let Ring)
e|--0---0---2---2---3---3---2---0----7---7---5---5---3---3---2---0h2--|
B|----0---0---0---0---0---0---0---0----0---0---0---0---0---0---0------|
G|--------------------------------------------------------------------|
D|--------------------------------------------------------------------| x4
A|--------------------------------------------------------------------|
E|--------------------------------------------------------------------|


Then repeat and fade out

h = hammer on
Tap to rate this tab
 
# A B C D E F G H I J K L M N O P Q R S T U V W X Y Z