Song name
# A B C D E F G H I J K L M N O P Q R S T U V W X Y Z

Misc Computer Games - Age Of Empires 2 - Age Of Kings Bass Bag tab

This is my first tab upload. The timing is kinda bad but listen to the song
and you'll get it in no time. Works pretty well on guitar :)!



AGE OF EMPIRES BASS BAG


E |--------3----3----3-5-6-5-3--1---1---1---1---1--|
B |-----3----3--------------------3---1---3---1----|
G |--0---------------------------------------------|
D |------------------------------------------------|
A |------------------------------------------------|
E |------------------------------------------------|


E |------------------------------------------------|
B |--3-------1---1---------------------------------|
G |------------3----------3-2-0---0---------3-2-0--|
D |-----------------------------3------------------|
A |------------------------------------------------|
E |------------------------------------------------|


E |------------------------------------------------|
B |------------------------------1---1---1-3-------|
G |-------------0-2----0-2-0-2-3---3---3-----------|
D |--3------0-3------3-----------------------------|
A |------------------------------------------------|
E |------------------------------------------------|

E |------3-1---3-1---1-3-13565313------------------|
B |--1-3-----3-----3---------------------3---------|
G |------------------------------------------------|
D |------------------------------------------------|
A |------------------------------------------------|
E |------------------------------------------------|

E |------------------------------------------------|
B |--1-3----1--------------------------------------|
G |-----------3-2--3--0---2---3--2--0---0----------|
D |-----------------------------------3------------|
A |------------------------------------------------|
E |------------------------------------------------|


E |------------------------------------------------|
B |------------------------------------------------|
G |------------------------------------------------|
D |-0----------------------------------------------|
A |----3-1-0-1-------------------------------------|
E |------------------------------------------------|


That's all hope you enjoy it!
Tap to rate this tab
 
# A B C D E F G H I J K L M N O P Q R S T U V W X Y Z