Song name
# A B C D E F G H I J K L M N O P Q R S T U V W X Y Z

Misc Computer Games - Pokemon - Team Aquamagma Grunt Battle Theme tab

-------------------------------------------------------------------------------
                             Pokemon RSE - Team Aqua/Magma Grunt Battle Theme
-------------------------------------------------------------------------------
Tabbed by: Christopher McLaren
E-mail: swampert948@hotmail.co.uk

Tuning: Standard.


Opening Lick:

e|--6-6h7h9p7p6-x4----|
B|--------------------|
G|--------------------|
D|--------------------|
A|--------------------|
E|--------------------|

e|--------------------------------------------5--------------------|
B|-----3-4-6--6--6-6--6--6-7-6--6--6-6--6--6---6--6--6-6--6--6-7---|
G|-----------------------------------------------------------------|
D|-----------------------------------------------------------------|
A|-----------------------------------------------------------------|
E|-----------------------------------------------------------------|

e|------------------5---------------------------------------------------------|
B|--6--6--6-6--6--6----6--4--3---4-3-4-6-4-3-4-7----4-------------------------|
G|-----------------------------3----------------------------------------------|
D|----------------------------------------------------------------------------|
A|----------------------------------------------------------------------------|
E|----------------------------------------------------------------------------|

e|--------------------------------11------------------------------------------------|
B|--6--4--3---4-3-4-6-4-3-4-7-------------------------------------------------------|
G|----------3----------------------------7--7--7--8--8--8--10--10--10--8--8--8------|
D|----------------------------------------------------------------------------------|
A|----------------------------------------------------------------------------------|
E|----------------------------------------------------------------------------------|

e|-----------------------------------------------------------------------------|
B|----------------------------------------------9--7----9-7--------------------|
G|-7-7-7-8-8-8-10-10-8-7---7-10----7---7-8-10--------------8-10----------------|
D|------------------------------------8----------------------------------------|
A|-----------------------------------------------------------------------------|
E|-----------------------------------------------------------------------------|

e|-----------------------------------------------------------------------------------|
B|----------7------------------------------------------------------------------------|
G|--7---7-8---8----------------------------8--------------------8---13---------------|
D|----8----------7-8-10-11---/11---11-9-11--12-11-9-11---11-9-11--11---12-11---------|
A|---------------5-6-8--9------------------------------------------------------------|
E|-----------------------------------------------------------------------------------|

e|------------------------------------------------------|
B|------------------------------------------------------|
G|-----------8------------------------------------------|
D|---11-9-11--12-11-9-11--12--13--14--13--14--15--16----|
A|------------------------------------------------------|
E|------------------------------------------------------|

e|-----------------------------------------------------------------------------|
B|-----------------------------------------------------------------------------|
G|-----------------------------------------------------------------------------|
D|-----------------------------------------------------------------------------|
A|--5h6p5h6h8/9p8p6--5h6p5h6h8/9\8/9--5h6p5h6h8/9p8p6--6p5h6p5h8/9p8p6---------|
E|-----------------------------------------------------------------------------|

e|------------------------------------------------------------------------------|
B|------------------------------------------------------------------------------|
G|------------------------------------------------------------------------------|
D|------------------------------------------------------------------------------|
A|--5h6p5h6h9/10p9----5h6p5h6h9/10\9/10--5h6p5h6h9/10p9----5h6p5h6h8/9p8--------|
E|----------------t6-----------------------------------t6---------------t6------|

e|------------------------------------------------------------------------------------|
B|-------------7-6--7-6-4-3---------------------------------------7-6--7-6-4----------|
G|--6---6-7-9------------------6-9-7-8-----------------6---6-7-9------------6---------|
D|----6----------------------6---------9-8--9-8-9/11-----6----------------------------|
A|------------------------------------------------------------------------------------|
E|------------------------------------------------------------------------------------|

e|-----------------------------------------------------------------------------------|
B|---------------------------------------------10-10-10-10-13-13-13-13-16-16-16-16---|
G|----6-9-7-9/11-10--11-10-11/13--11-11-11-11----------------------------------------|
D|--6--------------------------------------------------------------------------------|
A|-----------------------------------------------------------------------------------|
E|-----------------------------------------------------------------------------------|

e|-------------------------------------5--------------------------------------5-6~-----|
B|--6--6--6-6--6--6-7--6--6--6-6--6--6---6--6--6-6--6--6-5--6--6--6-6--6--6------------|
G|-------------------------------------------------------------------------------------|
D|-------------------------------------------------------------------------------------|
A|-------------------------------------------------------------------------------------|
E|-------------------------------------------------------------------------------------|

Thank you for viewing my tab guys, if you have any questions please leave a comment or email me.

This is my cover of the song so you can see from this how the tab has been arranged and 
how the song is supposed to sound.
http://www.youtube.com/watch?v=I2CpW0MFhGQ

If you view my cover please let me know what you think of it.

Lastly, peace out guys and god bless \m/

Keep on rockin'.
Tap to rate this tab
 
# A B C D E F G H I J K L M N O P Q R S T U V W X Y Z