Song name
# A B C D E F G H I J K L M N O P Q R S T U V W X Y Z

Misc Computer Games - Saras Theme tab

------------------------------------------------------------------------------
           Misc computer games: Breath of Fire - Sara´s theme
-------------------------------------------------------------------------------
Tabbed by: Tritoch21
E-mail: anderzolzzon@hotmail.com

Tuning: Standard



e|--3----------7----------------0-----------3-----------------------0---3----|
B|-----------------7----------------------------3------0----1---3------------|
G|---------0---------------7------------0--------------0------------0--------|
D|----------------------7-----------2---------------------------2------------|
A|------2----------5------------3-------------------2-------3----------------|
E|--0-------------------------------------------3----------------------------|



e|--------------------------7-----5\----2------------------------------------|
B|---3------0----1---------0-------------------3-----------------------------|
G|----------0-------------0-----------------2-----2--------------------------|
D|-------------------2------------------0------------------------------------|
A|-------2-------3-----------------------------------------------------------|
E|---3-----------------------------------------------------------------------|



e|---3-----------7-----------7----10---10--------8----------8----------------|
B|-------------------7-------7-------------------10----12------------8-------|
G|-----------0-------------------------------------------------------9-------|
D|-----------------------7------------------10------------------10-----------|
A|-------2-----------5-----------------8--------------------8----------------|
E|---0-----------------------------------------------------------------------|



e|---0----2---3----0---------------------0---------------------------+12+----|
B|----------------------4-----------4-----------------+12+-------------------|
G|------------2-----------------4--------------+12+----------+12+------------|
D|--------2-----------------4------------------------------------------------|
A|---3------------------2----------------------------------------------------|
E|---------------------------------------0-----------------------------------|






************************************

| /   slide up
| \   slide down
| h   hammer-on
| p   pull-off
| ~   vibrato
| +   harmonic
| x   Mute note
| b   Bend
| pb  Pre-bend
| br  Bend release
| pbr Pre-bend release
| brb Bend release bend

************************************
Tap to rate this tab
# A B C D E F G H I J K L M N O P Q R S T U V W X Y Z