Song name
# A B C D E F G H I J K L M N O P Q R S T U V W X Y Z

Misc Computer Games - Doom 2 - Map 01 tab

Doom 2 
Map 1
Guitarsolo

Transcription by Wim den Herder
www.wimdenherder.com

     S S S S S S S S S S S S S S S S    S S S S S S S S S S S S S S S S  
E||--7-3---3-7-8-7-3-----------3-----|--------5-----8-----------8-7-5---|
B||------5-----------5-------5---7-5-|----5-8---8-5---8-5---8-5-------8-|
G||--------------------4---4---------|--5-----------------5-------------|
D||----------------------5-----------|----------------------------------|
A||----------------------------------|----------------------------------|
E||----------------------------------|----------------------------------|
 
 
  S S S S S S S S S S S S S S S S    S S S S S S S S  S S S S E  E   
----------------7---------7-5---7-|------------------10-8-7---------|
------------5-8---5-8-7-5-----8---|--5-------5---8-5--------8-------|
----------------------------------|----4---4---4--------------5--4--|
--9-5---5-9-----------------------|------7--------------------------|
------7---------------------------|---------------------------------|
----------------------------------|---------------------------------|
 
 
  S S S S S S S S S S S S S S S S    S S S S S S S S S S S S S S S S  
----------------------------------|----------5-----------------7-5---|
----------------------------------|--5-8-7-5---8-7-5-0---0-5-8-----8-|
----4-------------4-5-4---4-------|--------------------0-------------|
--5---7-5-------5-------7---5-----|----------------------------------|
----------7---7---------------7---|----------------------------------|
------------7-------------------7-|----------------------------------|
 
 
  S S S S S S S S S S S S S S S S    S S S S S S S S S S S S E  E   
------------------------3-7-3---3-|--------------------------------|
--5-------------------5-------5---|--------------------------------|
----4---------------4-------------|--4---------------4---4-7-5--4--|
------5-2-------2-5---------------|----5-2-5-2---2-5---5-----------|
----------2---2-------------------|------------2-------------------|
------------3---------------------|--------------------------------|
 
 
  S S S S S S S S S  S  S S  S S  S S  
----------5-8-7-5-8-12-10-8---------8-|
--------5-------------------10---10---|
--5---5------------------------9------|
----7---------------------------------|
--------------------------------------|
--------------------------------------|
 
 
   S  S S  S  S  S S  S  S S S S  S S  S S    S S S S S S S S S S S S S S S S  
-------------------------------------------|--5-8-7-5---------5--------------
----------------10-8------------------10-6-|----------5-----5---5---5--------
--10---------10------10--------------------|--------------5-------5---5------
-----10-7-10------------10-7---7-10-7------|------------7---------------7---7
-----------------------------8-------------|------------------------------7--
-------------------------------------------|---------------------------------
 
 
  S S S S S S S S S S S S E  E     E  E  S S S S S S S S S S S S  
----5---------------------------|--------------------------------|
--5---8-6-5---------5-----------|-----5----5---5-------5---5-6-5-|
------------7-5---5---5---------|--------7---7---7-5-7---7-------|
----------------7-------7-------|--------------------------------|
--------------------------8--7--|--------------------------------|
--------------------------------|--------------------------------|
 
 
  S S S S S S S S S S S S S S S S    S S S S S S S S S S S S S S S S  
----------------5-----5-7-8-7-5---|----------------------5-8-5-------|
------5-------5---8-5-----------8-|--5-----5---5-------5-------5-----|
--7-5---5---5---------------------|----7-5---7---5---5-----------5---|
----------7-----------------------|----------------7---------------7-|
----------------------------------|----------------------------------|
----------------------------------|----------------------------------|
 
 
  S S S S S  S  S S  S S  S S E  E     S S S S S S S S S S S S S S S S  
----5-8-7-8-12-10-8-----------------|--------5-----------7-5-----------|
--5-----------------10--------------|----5-8---8-7-8-5-8-----8-5-------|
-----------------------9----9-------|--4-------------------------4---4-|
-------------------------10---------|------------------------------5---|
------------------------------8--7--|----------------------------------|
------------------------------------|----------------------------------|
 
 
  S S S S S  S  S S S S S  S  S S  S  S  
----------8-12-10-8-----8-12-10-8-15-12-|
------5-8-----------8-------------------|
----5-----------------9-----------------|
--5-------------------------------------|
----------------------------------------|
----------------------------------------|
 
 
   S  S S  S  S S  S  S  S S  S  S  S  S S  S  
---------------------------9-------12-10-9----|
------------------------10---12-10---------10-|
--------9-14-12-9-----------------------------|
-----11--------------11-----------------------|
--12--------------12--------------------------|
----------------------------------------------|
 
 
   S S S S S S S S S S S S  E  E     S S  S S S S  S S S  S S  S S  S S S  
--10-7-----7----------------------|---------------------------------------|
-------8-----8-------8-7----------|---------------------------------------|
---------9-----9---9-----9--------|---------------------------------------|
-----------------9---------10--9--|-----------9-7------9-10-9-10-9--------|
----------------------------------|----7-10-7-----10-7-------------10-7---|
----------------------------------|--7----------------------------------7-|
 
 
  S S S S S S S S S S S S S S S S    S S S S S S S S S S S S S S S S  
----------------------------------|----------------------------------|
--8-5-----------------------------|------5---------------------------|
------4-5-4-5-4---4---------------|--6-4---4-----4---4---------4-----|
--------------------5-------5-4---|----------5-----5---------5---7-5-|
----------------7-----7---7-----7-|------------7-------7---7---------|
------------------------7---------|----------------------7-----------|
 
 
  S S S S S S S S S S S S E  E   
--7-----------------------------|
----8-5-8-7-8-7-5---5-8-5-------|
------------------4-------5--4--|
--------------------------------|
--------------------------------|
--------------------------------|
 
 
   S  S  S  S  S  S  S  S  S  S  S  S  S  S  S  S  
--------------12-13-14-15-14-13-12-11-------------|
--13-14-15-16-------------------------11----15-11-|
-----------------------------------------12-------|
--------------------------------------------------|
--------------------------------------------------|
--------------------------------------------------|
 
 
   S  S  S  S  S  S  S  S  S  S  S  S  S  S  S  S  
-----------------------------------14-------------|
--------------12-13-14-15-13----15----13----------|
--11-12-13-14----------------14----------14-11-14-|
--------------------------------------------------|
--------------------------------------------------|
--------------------------------------------------|
 
 
   S  S  S  S  S  S  S  S  S  S  S  S  S  S  S  S  
--------------10-11-10----16-15-14-13-------------|
--------11-13----------13-------------17-16-15-14-|
--12-14-------------------------------------------|
--------------------------------------------------|
--------------------------------------------------|
--------------------------------------------------|
 
 
   S  S  S  S  S  S  S  S  S  S  S  S  S  S  S  S  
--------------------------------------------------|
--------------------------------------------------|
--17-16-15-14-------------------------------------|
--------------18-17-16-15-14-13-12-11-10-12-14-15-|
--------------------------------------------------|
--------------------------------------------------|
 
 
   S  S  S  S  S  S  S  S  S  S  S  S  S  S  S  S  
--------------------12----------------------------|
-----------13-14-15----15----------------13-14-15-|
--12-14-15----------------15-12----12-15----------|
--------------------------------12----------------|
--------------------------------------------------|
--------------------------------------------------|
 
 
   S  S  S  S  S  S  S  S  S  S  S  S  S  S  S  S  
--------------10-11-10----------------------------|
-----------------------13-------------------------|
--11-12-13-14-------------15-14-13-12-------------|
--------------------------------------16-15-14-12-|
--------------------------------------------------|
--------------------------------------------------|
 
 
   S  S  S  S  S  S  S  S  S  S  S  S  S  S  S  S  
--18-15-16----15----------------------------------|
-----------18----16-18-15-16----15----------------|
-----------------------------17----15-17----15----|
-----------------------------------------18----17-|
--------------------------------------------------|
--------------------------------------------------|
 
 
   S  S  S  S  S  S  S  S  S  S  S  S  E   E   
----------------------------------------------|
----------------------------------------------|
--17-16-15-14---------------------------------|
--------------18-17-16-15-14----14------------|
-----------------------------15-------15--14--|
-----------------------------------15---------|
 
 
   S  S  S  S  S  S  S  S  S  S  S  S  S  S  S  S  
-----------12-15----------12-15-14-12----------12-|
--------12-------12----12-------------12----12----|
-----12-------------12-------------------12-------|
--14----------------------------------------------|
--------------------------------------------------|
--------------------------------------------------|
 
 
   S  S  S  S  S  S  S  S  S  S  S  S  S  S  S  S  
-----------------12-------------------------------|
--13----------13----15-13-------------------13----|
-----12----12-------------12----------12-------12-|
--------14-------------------14----14----14-------|
--------------------------------15----------------|
--------------------------------------------------|
 
 
   S  S  S  S  S  S  S  S  S  S  S  S  S  S  S  S  
--------------------------------------12----15-12-|
--------------------14-------------------14-------|
--14----------12-------14-12-------14-------------|
-----14-11-14----14----------14-11----------------|
--------------------------------------------------|
--------------------------------------------------|
 
 
   S  S  S  S  S  S  S  S  S  S  S  S  E   E   
--15-14-12------------------------------------|
-----------15-13-12---------------------------|
--------------------14-12-11-12---------------|
--------------------------------14-12---------|
--------------------------------------15--14--|
----------------------------------------------|
 
 
   S  S  S  S  S  S  S  S  S  S  S  S  S  S  S  S  
--------------------------12-------12-------12-15-|
--------------12-13-12-------12-------12----------|
-----11-12-14----------12-------12-------12-------|
--14----------------------------------------------|
--------------------------------------------------|
--------------------------------------------------|
 
 
   S  S  S  S  S  S  S  S  S  S  S  S  S  S  S  S  
--12----------------------------------------------|
-----13----------------------12-13-12-13-12-------|
--------12----------------12----------------12----|
-----------14----------14----------------------14-|
--------------15-10-15----------------------------|
--------------------------------------------------|
 
 
   S  S  S  S  S  S  S  S  S  S  S  S  S  S  S  S  
-----------------------------------------12-------|
-----------------12-------------------12----15-14-|
--------12----12----14-12----------12-------------|
--11-14----14-------------14----14----------------|
-----------------------------14-------------------|
--------------------------------------------------|
 
 
   S  S  S  S  S  S  S  S  S  S  S  S  E   E    
--------------------12----------12------------||
--15----12----12-------12----12----12---------||
-----12----------12-------12------------------||
-----------14---------------------------------||
--------------------------------------15--14--||
----------------------------------------------||
Tap to rate this tab
# A B C D E F G H I J K L M N O P Q R S T U V W X Y Z