Song name
# A B C D E F G H I J K L M N O P Q R S T U V W X Y Z

Misc Computer Games - Final Fantasy X Hd - Jecht Theme tab

Title: Jecht Theme
SubTitle: Final Fantasy X HD Remaster
Artist: Masashi Hamauzu
Copyright: Square Enix
Tabber: Medi92
Tempo = 71

Solo-Guitar

!!
IMPORTANT: This Tab is an excerpt of my `guitar-pro` file so this is for those who donīt 
have something like that. For a better view youīve to look at the `guitar-pro` file. 
Thank you.
!!

Legend
L - tied note
h - hammer on/pull off
b - bend
s - slide
g - ghost note
> - accentuated note
v - brush up
^ - brush down
V - pick stroke up
~ - vibrato


E |-------|----------------------------------------|----------------------------------------|
B |-------|----------------------------------------|--------5-------------------------------|
G |-------|----------------------------------------|-----4-----7L----------7~-7s-------7L---|
D |-------|-----------------------------------5s---|--6-----------------------6s-------6L---|
A |-------|----------------------------------------|----------------------------------------|
E |-------|----------------------------------------|----------------------------------------|


----------------------------------------|----------------------------------------|
----------------------------------------|--------5-------------------------------|
--7-------------------------------------|-----4-----7-----6h-7-----6-------------|
--6--------------------------------5s---|--6--------------------------9----------|
----------------------------------------|-----------------------------------7----|
----------------------------------------|----------------------------------------|


----------------------------------------|----------------------------------------|
----------------------------------------|--------5-------------------------------|
----------------------------------------|-----4-----7L----------7~-7s-------7L---|
--5-----6L----6~-------------------5s---|--6-----------------------6s-------6L---|
----------------------------------------|----------------------------------------|
----------------------------------------|----------------------------------------|

           ^     ^
----------------------------------------|----------------------------------------|
----------------------------------------|--------5-------------------------------|
--7L----7--7g----7L----------7----------|-----4-----7-----6h-7-----6-------------|
--6-----6g-6g----6L----------6-----5s---|--6--------------------------9----------|
----------------------------------------|-----------------------------------7----|
----------------------------------------|----------------------------------------|


----------------------------------------|----------------------------------------|
----------------------------------------|-----5--7--5L----------5~---------------|
-----------------------------------5s---|--6-----------------------6s-------6L---|
--5-----6L----6~------------------------|--------------------------5s-------5L---|
----------------------------------------|----------------------------------------|
----------------------------------------|----------------------------------------|

        ^  v     ^
----------------------------------------|----------------------------------------|
----------------------------------------|-----5--7--5-----7b-------7--5----------|
--6-----6--7-----6L----------6-----5s---|--6-------------------------------------|
--5-----5--5-----5L----------5----------|-----------------------------------7----|
----------------------------------------|----------------------------------------|
----------------------------------------|----------------------------------------|


----------------------------------------|----------------------------------------|
----------------------------------------|--------5-------------------------------|
--5-----6L----6~------------------------|-----4-----7L----------7~-7s-------7L---|
-----------------------------------5s---|--6-----------------------6s-------6L---|
----------------------------------------|----------------------------------------|
----------------------------------------|----------------------------------------|

           ^     ^
----------------------------------------|----------------------------------------|
----------------------------------------|--------5-------------------------------|
--7L----7--9g----7L----------7----------|-----4-----7-----6h-7-----6-------------|
--6-----6g-6g----6L----------6-----5s---|--6--------------------------9----------|
----------------------------------------|-----------------------------------7----|
----------------------------------------|----------------------------------------|


----------------------------------------|----------------------------------------|
----------------------------------------|--------7-----------7-----7-----9-------|
----------------------------------------|----------------------------------------|
--5-----6L----6~-------------------8h---|--9-----------7h-8-----------------9g---|
----------------------------------------|----------------------------------------|
----------------------------------------|----------------------------------------|

                                                            ^     ^  ^     ^
----------------------------------------|----------------------------------------|
--10----10----9-----7--------9~---------|-----5--7--5--------5-----5--7-----5----|
----------------------------------------|--6s-------------6--6-----6--6-----6----|
-----9g----------9g---------------------|----------------------------------------|
----------------------------------------|----------------------------------------|
----------------------------------------|----------------------------------------|

  ^     ^  ^     ^  ^     ^
----------------------------------------|----------------------------------------|
--8-----5--7-----5--5-----7-------------|--------5-------------------------------|
--6-----6--6-----6--6-----6-------------|-----4-----7L----------7~-7s-------7L---|
-----------------------------------5s---|--6-----------------------6s-------6L---|
----------------------------------------|----------------------------------------|
----------------------------------------|----------------------------------------|

           ^     ^
----------------------------------------|----------------------------------------|----------|
----------------------------------------|--------5-------------------------------|----------|
--7L----7--9g----7L----------7----------|-----4-----7-----6h-7-----6-------------|----------|
--6-----6g-6g----6L----------6-----5s---|--6--------------------------9----------|--8--9L-9~|
----------------------------------------|-----------------------------------9----|----------|
----------------------------------------|----------------------------------------|----------|


----------------------------------------|----------------------------------------|
--10L---------10-10-------8-------------|-----------------------------8-----8----|
-----------------------------9L---------|--9L----9s-------------7h-9-----9-------|
----------------------------------------|----------------------------------------|
----------------------------------------|----------------------------------------|
----------------------------------------|----------------------------------------|


----------------------------------------|----------------------|-----------------------------|
--10>------10>------10----8-------------|----------------------|--10>------10-------8--------|
--------------------------------9-------|--7--9L----9~---------|--------------------------9L-|
----------------------------------------|----------------------|-----------------------------|
----------------------------------------|----------------------|-----------------------------|
----------------------------------------|----------------------|-----------------------------|


----------------------------------------|--------12------------------------------|
-----------------------------8-----8----|--10>------10b---8-----8-----8----------|
--9L----9s-------------7h-9-----9-------|--------------------9--------------9----|
----------------------------------------|----------------------------------------|
----------------------------------------|----------------------------------------|
----------------------------------------|----------------------------------------|


----------------------------------------|--10>12L----------------------12----------10h---12--|
----------------------------------------|----------------------------------------------------|
--7--9L----------9~---------------------|----------------------------------------------------|
----------------------------------------|----------------------------------------------------|
----------------------------------------|----------------------------------------------------|
----------------------------------------|----------------------------------------------------|


--15-------15>---------15L15L------15L--|--15--------15----12----12----12s10------10----10---|
----------------------------------------|--------------------------------------------12------|
----------------------------------------|----------------------------------------------------|
----------------------------------------|----------------------------------------------------|
----------------------------------------|----------------------------------------------------|
----------------------------------------|----------------------------------------------------|


----------------------------------------|----------------------------------------|
--12h10----10h8--8--8-------------------|-----------8-----10b------8L----8L------|
--------------------------7-----8-------|--9-------------------------------------|
----------------------------------------|----------------------------------------|
----------------------------------------|----------------------------------------|
----------------------------------------|----------------------------------------|


-----------------------------------------------------12g-----------------------|-------|
--8~----------------------------------10s12----------------10----------8L------|--8L---|
-------------------------------------------------------------------------------|-------|
-------------------------------------------------------------------------------|-------|
-------------------------------------------------------------------------------|-------|
-------------------------------------------------------------------------------|-------|


----------------------------------------|----------------------------------------------|
--8-----------------------8-----8--10---|--10s12----------12~-------------10----12-----|
-----------7g----7g-9-------------------|----------------------------------------------|
-----7g-9g----9g------------------------|----------------------------------------------|
----------------------------------------|----------------------------------------------|
----------------------------------------|----------------------------------------------|


-------------------------------------------------------------------------------|
--12s14----------13----------12----------10h---7-----10----------9h----8-------|
-------------------------------------------------------------------------------|
-------------------------------------------------------------------------------|
-------------------------------------------------------------------------------|
-------------------------------------------------------------------------------|


----------------------------------------|----------------------------------------------||
--------8--10b------10----8L------------|--8L-------8~--------7g-6g-5g-4g-3g-2g-1g-0g--||
--9-------------------------------------|----------------------------------------------||
----------------------------------------|----------------------------------------------||
----------------------------------------|----------------------------------------------||
----------------------------------------|----------------------------------------------||



Title: Jecht Theme
SubTitle: Final Fantasy X HD Remaster
Artist: Masashi Hamauzu
Copyright: Square Enix
Tabber: Medi92
Tempo = 71

Rythm-Guitar

!!
IMPORTANT: This Tab is an excerpt of my `guitar-pro` file so this is for those who donīt 
have something like that. For a better view look at the `guitar-pro` file. Thank you.
!!

Legend
L - tied note
h - hammer on/pull off
b - bend
s - slide
g - ghost note
> - accentuated note
v - brush up
^ - brush down
V - pick stroke up
M - palm mute

              ^     v           v  ^  v                    ^     v           ^     v
E |----------------------------------------|    ----------------------------------------|
B |----------------------------------------|    ----------------------------------------|
G |-----------------------------7--7-------| 2x ----------------------------------------|
D |--6s-------6-----------------6--6-------|    -----------6-----------------6----------|
A |--7s-------7----------------------------|    -----------7-----------------7----------|
E |--0-----0--------0--0M----0--------0----|    --0M----0M-------0--0M----0M-------0----|


               ^     v           v  ^  v                    ^     v           ^     v
    ----------------------------------------|    ----------------------------------------|
    ----------------------------------------|    ----------------------------------------|
    -----------------------------7--7-------|    ----------------------------------------|
 3x -----------6-----------------6--6-------| 4x -----------6-----------------6----------|
    -----------7----------------------------|    -----------7-----------------7----------|
    --0M----0M-------0--0M----0--------0----|    --0M----0M-------0--0M----0M-------0----|


           v     v           v     v                    v     v           v  ^  v
----------------------------------------|    ----------------------------------------|
----------------------------------------|    ----------------------------------------|
-----------6-----------------6----------|    -----------6-----------------6--6-------|
-----------5-----------------5----------| 3x -----------5-----------------5--5-------|
-----------7-----------------7----------|    -----------7----------------------------|
--5M----5M-------5--5M----5M-------5----|    --5M----5M-------5--5M----5M-------5----|


               ^     v           ^     v                    ^     v           v  ^  v
    ----------------------------------------|    ----------------------------------------|
    ----------------------------------------|    ----------------------------------------|
    ----------------------------------------|    -----------------------------7--7-------|
 2x -----------6-----------------6----------|    -----------6-----------------6--6-------|
    -----------7-----------------7----------|    -----------7----------------------------|
    --0M----0M-------0--0M----0M-------0----|    --0M----0M-------0--0M----0--------0----|


           ^     v           ^     v                    v     v           v     v
----------------------------------------|    ----------------------------------------|
----------------------------------------|    ----------------------------------------|
----------------------------------------|    ----------------------------------------|
-----------6-----------------6----------| 2x -----------7-----------------7----------|
-----------7-----------------7----------|    -----------6-----------------6----------|
--0M----0M-------0--0M----0M-------0----|    --7M----7M-------7--7M----7M-------7----|


           v     v           v     v                v     v           v  ^  v
----------------------------------------|----------------------------------------|
----------------------------------------|----------------------------------------|
-----------6-----------------6----------|-----------6-----------------6--6-------|
-----------5-----------------5----------|-----------5-----------------5--5-------|
-----------7-----------------7----------|-----------7-----------------7--7-------|
--5M----5M-------5--5M----5M-------5----|--5M----5M-------5--5M----5M-------5----|


               ^     v           ^     v                    ^     v           v  ^  v
    ----------------------------------------|    ----------------------------------------|
    ----------------------------------------|    ----------------------------------------|
    ----------------------------------------|    -----------7-----------------7--7-------|
 3x -----------6-----------------6----------| 7x -----------6-----------------6--6-------|
    -----------7-----------------7----------|    -----------7-----------------7----------|
    --0M----0M-------0--0M----0M-------0----|    --7M----7M-------7--7M----7M-------0----|


  ^  v  ^  ^  v  ^  ^  v  ^  ^  v  ^
----------------------------------------|
----------------------------------------|
--7--7-----7--7-----7--7-----7--7-------|
--6--6--6--6--6--6--6--6--6--6--6--6----|
--7--7--7--7--7--7--7--7--7--7--7--7----|
--0--0--0--0--0--0--0--0--0--0--0--0----|

               v     v           v     v                    ^     v           v  ^  v
    ----------------------------------------|    ----------------------------------------|
    ----------------------------------------|    ----------------------------------------|
    -----------6-----------------6----------|    -----------------------------7--7-------|
 4x -----------5-----------------5----------| 2x -----------6-----------------6--6-------|
    -----------7-----------------7----------|    -----------7----------------------------|
    --5M----5M-------5--5M----5M-------5----|    --0M----0M-------0--0M----0M-------0----|


               ^     v           ^     v                    v     v           v     v
    ----------------------------------------|    ----------------------------------------|
    ----------------------------------------|    ----------------------------------------|
    ----------------------------------------|    ----------------------------------------|
 2x -----------6-----------------6----------| 2x -----------7-----------------7----------|
    -----------7-----------------7----------|    -----------6-----------------6----------|
    --0M----0M-------0--0M----0M-------0----|    --7M----7M-------7--7M----7M-------7----|



           v     v           v  ^  v       ^
----------------------------------------|----------------------------------------||
----------------------------------------|----------------------------------------||
-----------6-----------------6--6--6----|--6-------------------------------------||
-----------5-----------------5--5--5----|--5-------------------------------------||
-----------7-----------------7--7--7----|--7-------------------------------------||
--5M----5M-------5--5M----5M------------|----------------------------------------||
Tap to rate this tab
# A B C D E F G H I J K L M N O P Q R S T U V W X Y Z