Song name
# A B C D E F G H I J K L M N O P Q R S T U V W X Y Z

Misc Computer Games - Legend Of Zelda - Stone Tower Temple tab

This is the creepy choir:
e-----------------------------------------------------------|
B-----------------------------------------------------------|
G-----------------------------------------------------------|
D-2-(2)---3-(3)----------2-(2)---3-(1)--2-(2)---------------|
A-0-(0)---1-(1)--5-(5)---0-(0)---1-(1)--0-(0)---------------|
E----------------3-(3)--------------------------------------|

Choir repeats while guitar C comes in(I know, we haven't had a guitar A or B yet, we're 
getting to that).


C

e-----------------------------------------------------------|
B-----------------------------------------------------------|
G-----------------------------------------------------------|
D--2-2-2-3-2-2-2-0------------------------------------------|
A-0-0-0---0-0-0---------------------------------------------|
E-----------------------------------------------------------|

After guitar C plays once it repeats and guitar A comes in

A

E-----------------------------------------------------------|
B-----------------------------------------------------------|
G-----------------------------------------------------------|
D-7-10-9--5-7-10-9h10p9-7-5-2---7-10-9-5-7-10-9h10p9-5-7----|
A-----------------------------------------------------------|
E-----------------------------------------------------------|

Guitar A repeats and guitar B comes in so they play at the same time.






B

e-5-8-7h8p7--3-5-8-7h8p7-5-3-0---5-8-7h8p7-3-5-8-7h8p7-3-5-|
B----------------------------------------------------------|
G----------------------------------------------------------|
D----------------------------------------------------------|
A----------------------------------------------------------|
E----------------------------------------------------------|




Guitars C,B, and A stop and stay out until the choir plays once.

choir:
e-----------------------------------------------------------|
B-----------------------------------------------------------|
G-----------------------------------------------------------|
D-2-(2)---3-(3)----------2-(2)---3-(1)--2-(2)---------------|
A-0-(0)---1-(1)--5-(5)---0-(0)---1-(1)--0-(0)---------------|
E----------------3-(3)--------------------------------------|


After choir plays once guitars A and C come in. C is the same, but A and B are different.


A+B

e-----------------------------------------------------------|
B-----------------------------------------------------------|
G---------------------(B)-9-9-7-5-4-4-2---------------------|
D-(A)-7-7-5--7-5-3-2-------7-7-5-5-3-3-2--------------------|
A----------7------------------------------------------------|
E-----------------------------------------------------------|







e---------------------------------------------------------|
B---------------------------------------------------------|
G-(B)-9-9-7-9-7-5-4---9-10-9-7-5-4-2----------------------|
D-(A)-7-7-5-7-5-3-2---7-8-7-5-3-3-2-----------------------|
A---------------------------------------------------------|
E---------------------------------------------------------|





This next part is just guitar B and choir, but choir drops out after guitar B plays once.

e-0-5-8-7h8p7-3-0-5-8-7h8p7-------------------------------|
B---------------------------------------------------------|
G---------------------------------------------------------| 2x
D---------------------------------------------------------|
A---------------------------------------------------------|
E---------------------------------------------------------|

And that's it! Repeat as much as you like and enjoy!
                              Cheers,
               Ryan Kinney
Tap to rate this tab
 
# A B C D E F G H I J K L M N O P Q R S T U V W X Y Z