Song name
# A B C D E F G H I J K L M N O P Q R S T U V W X Y Z

Misc Computer Games - Red Alert 3 - Soviet March tab

This is in Drop D tuning! Just tune down your low E string to a D

e|-------------------------------------------------------------------------|
B|-------------------------------------------------------------------------|
G|-------------------------------------------------------------------------|
D|-----7--8-7-5-7----5-------5---------------------------------------------|
A|--5-------------------8-7-----7--5-7-7-7---------------------------------|
E|-------------------------------------------------------------------------|

e|-------------------------------------------------------------------------|
B|-------------------------------------------------------------------------|
G|--------7-5--------------------------------------------------------------|
D|-----7------8-7--5-------5-----------------------------------------------|
A|--5-----------------8-7-----7--5-7-7-7-----------------------------------|
E|-------------------------------------------------------------------------|

e|----------------------------------------------------------------------------|
B|----------------------------------------------------------------------------|Palm
G|----------------------------------------------------------------------------|Mute
D|----------------------------------------------------------------------------|This
A|--8-8-7-7-8-8-5--10-10-8-8-10-10-7--12-12-10-10-12-12-8--10-10-8-8-10-10-7--|
E|----------------------------------------------------------------------------|

e|----------------------------------------------------------------------------|
B|----------------------------------------------------------------------------|Palm
G|----------------------------------------------------------------------------|Mute
D|----------------------------------------------------------------------------|This
A|--8-8-7-7-8-8-5--10-10-8-8-10-10-7--12-12-10-10-12-12-8--10-10-8-8-10-10-7--|
E|----------------------------------------------------------------------------|

e|-------------------------------------------------------------------------|
B|-------------------------------------------------------------------------|
G|-------------------------------------------------------------------------|
D|------0------------0-----------0----------0------------------------------|
A|-------------------------------------------------------------------------|
E|-------------0------------0----------0-----------0-----------------------|

This is where the singing begins...
e|-------------------------------------------------------------------------|
B|---------------------------------------------10--------10-10----10-------|
G|---7--7--5-7----7--9--9--7--9--9--10--10--12----10--12-------12----------|
D|-------------7-----------------------------------------------------------|
A|-------------------------------------------------------------------------|
E|-------------------------------------------------------------------------|

e|---------------------------------------------------------------------------|
B|--10--10-----10-----10--11--11-10-8--8--10------8--------------------------|
G|----------12----10--------------------------10-----9--6--6-7-9-------------|
D|---------------------------------------------------------------7-----------|
A|---------------------------------------------------------------------------|
E|---------------------------------------------------------------------------|

e|-------------------------------------------------------------------------|
B|---------------------------------------------10--------10-10----10-------|
G|---7--7--5-7----7--9--9--7--9--9--10--10--12----10--12-------12----------|
D|-------------7-----------------------------------------------------------|
A|-------------------------------------------------------------------------|
E|-------------------------------------------------------------------------|

e|-------------------------------------------------------------------------|
B|--10--10-----10-----10--11--11-10-8--8--10------8------------------------|
G|----------12----10--------------------------10-----9--6--6-7-9-----------|
D|---------------------------------------------------------------7---------|
A|-------------------------------------------------------------------------|
E|-------------------------------------------------------------------------|

e|----------------------------------------------------------------------------|
B|----------------------------------------------------------------------------|Palm
G|----------------------------------------------------------------------------|Mute
D|----------------------------------------------------------------------------|This
A|--8-8-7-7-8-8-5--10-10-8-8-10-10-7--12-12-10-10-12-12-8--10-10-8-8-10-10-7--|
E|----------------------------------------------------------------------------|

e|----------------------------------------------------------------------------|
B|----------------------------------------------------------------------------|Palm
G|----------------------------------------------------------------------------|Mute
D|----------------------------------------------------------------------------|This
A|--8-8-7-7-8-8-5--10-10-8-8-10-10-7--12-12-10-10-12-12-8--10-10-8-8-10-10-7--|
E|----------------------------------------------------------------------------|

e|---------------------------------------------------8---------8--8------8-|
B|-----------------------8--8------8----8--9--9--11-----9--11--------11----|
G|--10--10--9-10-----10--------10------------------------------------------|
D|--------------10---------------------------------------------------------|
A|-------------------------------------------------------------------------|
E|-------------------------------------------------------------------------|

e|--8--8------8-----8--9--9--8----------8----------------------------------|
B|--------11-----9--------------11--11-----9--11--8----------8-------------|
G|---------------------------------------------------9--9-10---------------|
D|-------------------------------------------------------------10----------|
A|-------------------------------------------------------------------------|
E|-------------------------------------------------------------------------|

e|---------------------------------------------------8---------8--8------8-|
B|-----------------------8--8------8----8--9--9--11-----9--11--------11----|
G|--10--10--9-10-----10--------10------------------------------------------|
D|--------------10---------------------------------------------------------|
A|-------------------------------------------------------------------------|
E|-------------------------------------------------------------------------|

e|--8--8------8-----8--9--9--8----------8----------------------------------|
B|--------11-----9--------------11--11-----9--11--8----------8-------------|
G|---------------------------------------------------9--9-10---------------|
D|-------------------------------------------------------------10----------|
A|-------------------------------------------------------------------------|
E|-------------------------------------------------------------------------|

e|-------------------------------------------------------------------------|
B|-------------------------------------------------------------------------|
G|-------------------------------------------------------------------------|
D|-----10--11-10-8-10--8--------8------------------------------------------|
A|--8---------------------11-10---10--8-10-10--10--------------------------|
E|-------------------------------------------------------------------------|

e|-------------------------------------------------------------------------|
B|-------------------------------------------------------------------------|
G|---------10-8------------------------------------------------------------|
D|-----10-------11-10--8-------8-------------------------------------------|
A|--8--------------------11-10---10--8-10-10--10---------------------------|
E|-------------------------------------------------------------------------|

e|-------------------------------------------------------------------------|
B|-------------------------------------------------------------------------|
G|-------------------------------------------------------------------------|
D|-----10--11-10-8-10--8--------8------------------------------------------|
A|--8---------------------11-10---10--8-10-10--10--------------------------|
E|-------------------------------------------------------------------------|

e|-------------------------------------------------------------------------|
B|-------------------------------------------------------------------------|
G|---------10-8------------------------------------------------------------|
D|-----10-------11-10--8-------8-------------------------------------------|
A|--8--------------------11-10---10--8-10-10--8----------------------------|
E|-------------------------------------------------------------------------|

e|-------------------------------------------------------------------------|
B|-------------------------------------------------------------------------|
G|----------------------6-3-5---3------------------------------------------|
D|---3----3----3--3--3--------6---5-2--------------------------------------|
A|---3----3----3--3--3----------------3------------------------------------|
E|---3----3----3--3--3-----------------------------------------------------|

e|-------------------------------------------------------------------------|
B|-------------------------------------------------------------------------|
G|----------------------6-3-5---3------------------------------------------|
D|---3----3----3--3--3--------6---5-2--------------------------------------|
A|---3----3----3--3--3----------------3------------------------------------|
E|---3----3----3--3--3-----------------------------------------------------|

e|----------------------------------------------------9---------9--9------9|
B|-----------------------9--9------9----9--10--10--12-----10--12--------12-|
G|--11--11--10-11-----11--------11-----------------------------------------|
D|----------------11-------------------------------------------------------|
A|-------------------------------------------------------------------------|
E|-------------------------------------------------------------------------|

e|--9--9------9-------9--10--10--9----------9------------------------------|
B|--------12-----10----------------12--12-----10--12--9------------9-------|
G|-------------------------------------------------------10--10-11---------|
D|-------------------------------------------------------------------11----|
A|-------------------------------------------------------------------------|
E|-------------------------------------------------------------------------|

e|----------------------------------------------------9---------9--9------9|
B|-----------------------9--9------9----9--10--10--12-----10--12--------12-|
G|--11--11--10-11-----11--------11-----------------------------------------|
D|----------------11-------------------------------------------------------|
A|-------------------------------------------------------------------------|
E|-------------------------------------------------------------------------|

e|--9--9------9-------9--10--10--9----------9------------------------------|
B|--------12-----10----------------12--12-----10--12--9------------9-------|
G|-------------------------------------------------------10--10-11---------|
D|-------------------------------------------------------------------11----|
A|-------------------------------------------------------------------------|
E|-------------------------------------------------------------------------|

e|-------------------------------------------------------------------------|
B|-------------------------------------------------------------------------|
G|-------------------9-----------------------------------------------------|
D|--4----10--10--11---------11---------------------------------------------|
A|--4-------------------11-------------------------------------------------|
E|--4----------------------------------------------------------------------|

Tabbed by Michael Pumphrey


| /  slide up
| \  slide down
| h  hammer-on
| p  pull-off
| ~  vibrato
| +  harmonic
| x  Mute note
============================================================================
Tap to rate this tab
# A B C D E F G H I J K L M N O P Q R S T U V W X Y Z