Song name
# A B C D E F G H I J K L M N O P Q R S T U V W X Y Z

Misc Computer Games - Final Fantasy Xiii - Serahs Theme tab

-------------------------------------------------------------------------------
                             Serah's Theme - Final Fantasy XIII Soundtrack
-------------------------------------------------------------------------------
Tabbed by: The MAN

Notes: This is a finer version of the theme to FFXIII. I have done a tab 
prior to this one including just the melody in a higher octave with no base
notes or accompanying chords along with a list of the lyrics and alternate
chords that are designed to be easier to sing along to. This version is 
meant to sound better on solo guitar (which would include 99.99% of you). 
This is the only song I've ever tabbed, but as far as I know it's 100% 
accurate and 100% authentic. The song has a beautiful melody like all Final 
Fantasy soundtracks; I hope you enjoy it!

Tuning:EADGBe


e|--------------- | --------------- | ------------- | --------------| 
B|---0-1-0------- | --------------- | ------------- | --------------| 
G|---2----2-0--0- | --0-------0---- | -2----0-0---- | --2----0-0--0-| 
D|---2------0--2- | --0-3-2-0-2---- | -2------0---- | --2------0--2-| 
A|---0---------3- | ----------3--3- | -0-2-3--2---- | --0-2-3--2--3-| 
E|----------3---- | --3------------ | -----------3- | ---------3----| 

e|--------------- | --------------- | ------------- | --------------|
B|---0-1-0------- | --------------- | ------------- | --------------|
G|---2----2-0--0- | --0-------0---- | -2----0-0--0- | -2------------|
D|---2------0--2- | --0-3-2-0-2---- | -2------0---- | -2------------|
A|---0---------3- | ----------3--3- | -0-2-3--2---- | -0------------|
E|----------3---- | --3------------ | ------------- | --------------|

*For this section of the song I like to play more slowly, strumming from
the lowest indicated string with my thumb up to the highest indicated 
string. There are a few parts where I go back to plucking the chords rather 
than strumming. 

e|--------------- | --------------- | ------------- | --------------|
B|-1---------0--- | ------1-------- | -1-------0-1- | -3------------|
G|-2-----------2- | -0----0-------- | -2----------- | -0------0-----|
D|-2------------- | -0----2-------- | -2----------- | -0------------|
A|-0------------- | -2----3-------- | -0----------- | -2------------|
E|--------------- | -3------------- | ------------- | -3------------|

e|--------------- | --------------- | ------------- | --------------|
B|-4---------3--- | --------------- | --------3--4- | --------------|
G|-5-----------5- | -3----------3-- | -5----------- | -5------------|
D|-5------------- | -5-------5----- | -5----------- | -5------------|
A|-3------------- | -5------------- | -3----------- | -3------------|
E|--------------- | -3------------- | ------------- | --------------|


************************************

| /   slide up
| \   slide down
| h   hammer-on
| p   pull-off
| ~   vibrato
| +   harmonic
| x   Mute note
| b   Bend
| pb  Pre-bend
| br  Bend release
| pbr Pre-bend release
| brb Bend release bend

************************************
Tap to rate this tab
# A B C D E F G H I J K L M N O P Q R S T U V W X Y Z