Song name
# A B C D E F G H I J K L M N O P Q R S T U V W X Y Z

Misc Computer Games - Megaman Battle Network - Title Theme tab

Name of song: Title Theme
Name of game: Mega Man Battle Network
Composer of song: Akari Kaida
Name of tabber: Alexis Baez
Tuning: Standard


e---------14----------------------------| x2
B------15----17-15-17-------------------|
G---16----------------16~---------------|
D---------------------------------------|
A---------------------------------------|
E---------------------------------------|

e---------------------17---15-14-15-14--|
B------15-17-15-14----------------------|
G---16-------------14-------------------|
D---------------------------------------|
A---------------------------------------|
E---------------------------------------|

e----------------------14---------------|
B---17-15-17--------15----17-15-17------|
G------------16~--16----------------16~-|
D---------------------------------------|
A---------------------------------------|
E---------------------------------------|

e---------------------------------------|
B------15-17-15-14----12~---------------|
G---16-------------14-------------------|
D---------------------------------------|
A---------------------------------------|
E---------------------------------------|

e---------------------------16~-----------|
B---14-16-18-19-18-14-19-18---------------|
G-----------------------------------------|
D-----------------------------------------|
A-----------------------------------------|
E-----------------------------------------|
Tap to rate this tab
 
# A B C D E F G H I J K L M N O P Q R S T U V W X Y Z