Song name
# A B C D E F G H I J K L M N O P Q R S T U V W X Y Z

Misc Computer Games - Mii Channel Music tab

     Q    E   E  E   E  E   E      S S  S S  S H        S  E   
E||-------5---9----------------|------------------------------|
B||--7----7--10-----10---------|------------------------------|
G||--7--------------11-----11--|------------------------------|
D||------------------------12--|--12---12---12------------11--|
A||----------------------------|------------------------------|
E||----------------------------|------------------------------|


   S S  E   E   E  E   E  E   E      Q.      E   Q    Q     
----------------9----------------|--12------11--10---------|
-----------10--10-----10---------|-------------------------|
-------11--11---------11-----11--|--13------12--11---------|
--12---12--------------------12--|--14------13--12---------|
---------------------------------|-------------------------|
---------------------------------|-------------------------|


  S E.  S S S E.  S E.  S S    E  S E.  E  E  E  S E.   
--------9---------9---------|-----9--------------------|
--9---------7-----------9---|-----------8--7-----5-----|
----------------------------|--------------------------|
----------------------------|--------------------------|
----------------------------|--------------------------|
----------------------------|--------------------------|


  E  E  E  Q.     E  E     E  H.           E     Q    E   E  E   E  E  E   
------------------------|---------------------|--2----5---9---------------|
------------------------|---------------------|--3----7--10-----10-----7--|
--5--5--5---------5--5--|--5------------------|-----------------11-----8--|
--4--4--4---------4--4--|--4------------------|---------------------------|
------------------------|---------------------|---------------------------|
------------------------|---------------------|---------------------------|


  S S S S S E.   E   E   E  E     E   E   E   E  E   E  E   E   
----------------12--12--12-----|--------------9----------------|
-------------------------------|---------10--10-----10---------|
--9---9---9-----13--13--13-----|-----11--11---------11-----11--|
-------------------------------|-----12--------------------12--|
-------------------------------|-------------------------------|
-------------------------------|-------------------------------|


  H        Q    Q       E  E  E  Q    E  E  E     E  E  E  Q    E  E  E   
--9--------7---------|--7-------------7--------|--5-------------1--------|
--9--------7---------|-----8-------------8-----|-----7-----0-------3--0--|
--9--------7---------|--------7--6----------6--|--------5----------------|
---------------------|-------------------------|-------------------------|
---------------------|-------------------------|-------------------------|
---------------------|-------------------------|-------------------------|


  E  E  E  H        E     S S E   S S  E   S Q.     S    H         Q     Q     
--------------------6--|--7---9--10---14--17----------|-----------------------|
--2--2--2--------------|------------------------------|-----------------------|
-----------------------|------------------------------|-----------------------|
--4--4--4--------------|------------------------------|-----------------------|
-----------------------|------------------------------|-----------------------|
-----------------------|------------------------------|-----------17----18----|


   Q.      E   H           Q     E   E   E   Q     E      Q.      E   H         
------------------------|-----------------------------|------------------------|
------------------------|-----------------------------|------------------------|
------------------------|-----------------------------|------------------------|
------------------------|-------------------16--------|------------------------|
------------------------|-------------------------16--|--14------13--14--------|
--19------18--19--------|--L----17--18--19------------|------------------------|


   H         Q     Q        Q.      E   H           Q     E   E   E   Q     E   
------------------------|------------------------|-----------------------------|
------------------------|------------------------|-----------------------------|
------------------------|------------------------|-------------------13--------|
------------------------|------------------------|-------------------------13--|
--14--------14----15----|--16------15--16--------|--L----16--15--16------------|
------------------------|------------------------|-----------------------------|


   Q.      E   Q.      E      S S  Q     E  E  E  Q     
--------------------------|----------------------------|
--------------------------|-------10--------9--9--9----|
--------------------------|-------11--------9--9--9----|
--11------13----------11--|--12---------12-------------|
--------------14----------|----------------------------|
--------------------------|----------------------------|


  Q    E   E  E   E  E   E      S S  S S  S H        S  E   
-------5---9----------------|------------------------------|
--7----7--10-----10---------|------------------------------|
--7--------------11-----11--|------------------------------|
------------------------12--|--12---12---12------------11--|
----------------------------|------------------------------|
----------------------------|------------------------------|


   S S  E   E   E  E   E  E   E      Q.      E   Q    Q     
----------------9----------------|--12------11--10---------|
-----------10--10-----10---------|-------------------------|
-------11--11---------11-----11--|--13------12--11---------|
--12---12--------------------12--|--14------13--12---------|
---------------------------------|-------------------------|
---------------------------------|-------------------------|


  S E.  S S S E.  S E.  S S    E  S E.  E  E  E  S E.   
--------9---------9---------|-----9--------------------|
--9---------7-----------9---|-----------8--7-----5-----|
----------------------------|--------------------------|
----------------------------|--------------------------|
----------------------------|--------------------------|
----------------------------|--------------------------|


  E  E  E  Q.     E  E     E  H.           E     Q    E   E  E   E  E  E   
------------------------|---------------------|--2----5---9---------------|
------------------------|---------------------|--3----7--10-----10-----7--|
--5--5--5---------5--5--|--5------------------|-----------------11-----8--|
--4--4--4---------4--4--|--4------------------|---------------------------|
------------------------|---------------------|---------------------------|
------------------------|---------------------|---------------------------|


  S S S S S E.   E   E   E  E     E   E   E   E  E   E  E   E   
----------------12--12--12-----|--------------9----------------|
-------------------------------|---------10--10-----10---------|
--9---9---9-----13--13--13-----|-----11--11---------11-----11--|
-------------------------------|-----12--------------------12--|
-------------------------------|-------------------------------|
-------------------------------|-------------------------------|


  H        Q    Q       E  E  E  Q    E  E  E     E  E  E  Q    E  E  E   
--9--------7---------|--7-------------7--------|--5-------------1--------|
--9--------7---------|-----8-------------8-----|-----7-----0-------3--0--|
--9--------7---------|--------7--6----------6--|--------5----------------|
---------------------|-------------------------|-------------------------|
---------------------|-------------------------|-------------------------|
---------------------|-------------------------|-------------------------|


  E  E  E  H        E     S S E   S S  E   S Q.     S    H         Q     Q     
--------------------6--|--7---9--10---14--17----------|-----------------------|
--2--2--2--------------|------------------------------|-----------------------|
-----------------------|------------------------------|-----------------------|
--4--4--4--------------|------------------------------|-----------------------|
-----------------------|------------------------------|-----------------------|
-----------------------|------------------------------|-----------17----18----|


   Q.      E   H           Q     E   E   E   Q     E      Q.      E   H         
------------------------|-----------------------------|------------------------|
------------------------|-----------------------------|------------------------|
------------------------|-----------------------------|------------------------|
------------------------|-------------------16--------|------------------------|
------------------------|-------------------------16--|--14------13--14--------|
--19------18--19--------|--L----17--18--19------------|------------------------|


   H         Q     Q        Q.      E   H           Q     E   E   E   Q     E   
------------------------|------------------------|-----------------------------|
------------------------|------------------------|-----------------------------|
------------------------|------------------------|-------------------13--------|
------------------------|------------------------|-------------------------13--|
--14--------14----15----|--16------15--16--------|--L----16--15--16------------|
------------------------|------------------------|-----------------------------|


   Q.      E   Q.      E      S S  Q     E  E  E  Q      
--------------------------|----------------------------||
--------------------------|-------10--------9--9--9----||
--------------------------|-------11--------9--9--9----||
--11------13----------11--|--12---------12-------------||
--------------14----------|----------------------------||
--------------------------|----------------------------||





Tap to rate this tab
 
# A B C D E F G H I J K L M N O P Q R S T U V W X Y Z