Song name
# A B C D E F G H I J K L M N O P Q R S T U V W X Y Z

Misc Computer Games - Legend Of Zelda - Kakariko Village tab

Game: THE LEGEND OF ZELDA - TWILIGHT PRINCESS
Console: Wii/Gamecube
Track: Kakariko Theme

Tabbed by: NintEndO



This is the song you hear in Kakariko Village in ! TWILIGHT PRINCESS !
                                                   -----------------


!!!!!  NOT  FROM  OCARINA  OF  TIME  !!!!!



Guitar 1
........


Section A
---------

e|----------------11--------14----|
B|------12--------------12--------|
G|--11--------11------------------|
D|--------------------------------|
A|--------------------------------|
E|--------------------------------|


Section B
---------

e|----2---2------2-4-5---2-0-2------2---2------2-4-5---7-5-----|
B|------2---4-------------------------2---4----------------7---|
G|--4-----------------------------4----------------------------|
D|-------------------------------------------------------------|
A|-------------------------------------------------------------|
E|-------------------------------------------------------------|

e|-------------------------0------------2---|
B|--0-2-0-2-3---0--2-3-2-3------2-4-2-------|
G|------------------------------------4-----|
D|------------------------------------------|
A|------------------------------------------|
E|------------------------------------------|


Section C
---------


e|--2-4-5---2-0-2-4-2-------2--0-----------|
B|----------------------0-0------3-2-3-2---|
G|-----------------------------------------|
D|-----------------------------------------|
A|-----------------------------------------|
E|-----------------------------------------|

e|--2-4-5---2-0-2-4-2-------7-----7-9---------10--9--0-9-7--|
B|----------------------7-7-----7-------10-12---------------|
G|----------------------------------------------------------|
D|----------------------------------------------------------|
A|----------------------------------------------------------|
E|----------------------------------------------------------|




Guitar 2
........


Section B
---------

e|-------------------------------------------|
B|-------------------------------------------|
G|------6-6-4-----4-4-2-----6-6-4-----4-4-2--|
D|------6-6-4-----4-4-2-----6-6-4-----4-4-2--|
A|--0-2---------0-------------------0--------|
E|-------------------------------------------|

e|----------------------------------------------|
B|----2-2-0-------------2---4---------22---4----|
G|----2-2-0-----4-2-----2-4-4-4-------22-4-4-4--|
D|--------------4-2-------4---4----------4---4--|
A|------------0-------------------0-2-----------|
E|----------------------------------------------|


Section C
---------

e|--------------------------------------------|
B|----------5-5-3-----------------------------|
G|----------4-4-2----6-6-4---7-7-4----4-4-2---|
D|--4-2-0------------6-6-4---7-7-5----4-4-2---|
A|--4-2-0----------2----------------0---------|
E|--------------------------------------------|

e|--------------------------------------------------------|
B|----------5-5-3-----------------------------------------|
G|----------4-4-2----6-6-4---2-0-4-0---4-2-6-2------2--4--|
D|--4-2-0------------6-6-4---2-0-4-0---4-2-6-2---2--2--4--|
A|--4-2-0----------2-----------------------------2--------|
E|--------------------------------------------------------|




Bass 1
......


Section B
---------

G|--------------------------------------------------------------|
D|--------------------------------------------------------------|
A|--2----2----0----0----2----2----0----0----2----2----0----0----|
E|--------------------------------------------------------------|

G|------------------------------------------|
D|------------2----2------------------------|
A|----------------------2----2----2----2----|
E|--3----3----------------------------------|


Section C
---------

G|------------------------------------------|--------------------|
D|--0----0----------------------------------|--------------------|
A|------------2----2--------------0----0----|-----------0--------|
E|----------------------3----3--------------|--0-----------------|
                                         x2



Bass 2
......


Section B
---------

G|--4-----2-----2-4-----2-----2-4-----2---0-2-0-----2-----2-4-----2-4---|
D|------4-----4-------4-----4-------4-------------0-----4-------4-------|
A|----------------------------------------------------------------------|
E|----------------------------------------------------------------------|


Section C
---------

G|------------2-4-----0-----0-2-------------2-4-----0-----0-2-------2---|
D|--4-2-0---4-------4-----2-------4-2-0---4-------4-----2-------2-------|
A|----------------------------------------------------------------------|
E|----------------------------------------------------------------------|




Chords
......

Section A
---------
B A B A

Section B
---------
B A B A B A G A B B

Section C
---------
D B G A D B G A Em A


Strum each chord twice (except the final Em and A: once each)





Section A x1
Section B x2
Section C x1




Tabbed by NintEndO
Tap to rate this tab
# A B C D E F G H I J K L M N O P Q R S T U V W X Y Z