Song name
# A B C D E F G H I J K L M N O P Q R S T U V W X Y Z

Misc Computer Games - Legend Of Zelda - Storms tab

-------------------------------------------------------------------------------
			     Song of storms
-------------------------------------------------------------------------------
Tabbed by: Destin
Email: wotrocks@hotmail.com

Tuning: standard

e|---------------10-----------10------12-13---12-13-12--------------------|
B|-----------------------------------------------------------------13-----|
G|---7h10----------7h10----------------- - -------------------------------|
D|------------------------------------------------------------------------|
A|---0---------------0----------------------------------------------------|
E|------------------------------------------------------------------------|

e|-----------------------------------------------------------------------------|
B|--10----3/5---10-------10-----3----------------------------------------------|
G|-----------------------------------------------------------------------------|
D|-----------------------------------------------------------------------------|
A|-----------------------------------------------------------------------------|
E|-----------------------------------------------------------------------------|


Accompanyment
e|-----------------------------------------------------------------------------|
B|---8-8--10---11--10----------------------------------------------------------|
G|-----------------------------------------------------------------------------|
D|-----------------------------------------------------------------------------|
A|-----------------------------------------------------------------------------|
E|-----------------------------------------------------------------------------|
Tap to rate this tab
# A B C D E F G H I J K L M N O P Q R S T U V W X Y Z