Song name
# A B C D E F G H I J K L M N O P Q R S T U V W X Y Z

Misc Computer Games - Legend Of Zelda - Time tab

-------------------------------------------------------------------------------
			     SONG NAME - Band Name
-------------------------------------------------------------------------------
Tabbed by: destin
Email: wotrocks@hotmail.com

Tuning: Standard

e|---5----------1-----------3/5-----------1-------5---8--7-----3-------------------|
B|--------3-------------------------3----------------------------------------------|
G|--2-----------2----------2--------------2-------5--------------------------------|
D|------------------------------------------------------------------0--------------|
A|---------------------------------------------------------------------------------|
E|---------------------------------------------------------------------------------|

e|---1---3---3-/5-----------0------------------------------------------------------|
B|-------------------3---1--------3------------------------------------------------|
G|---2--------------2---0--------2-------------------------------------------------|
D|---------------------------------------------------------------------------------|
A|---------------------------------------------------------------------------------|
E|---------------------------------------------------------------------------------|

enjoy!

/-slide
Tap to rate this tab
# A B C D E F G H I J K L M N O P Q R S T U V W X Y Z