Song name
# A B C D E F G H I J K L M N O P Q R S T U V W X Y Z

Misc Computer Games - Legend Of Zelda - Link To The Past tab

--------------------------------------------------------------------------   
Legend Of Zelda Theme From A Link To The Past
----------------------------------------------------------------------------
Tabbed by: The Leader
Email:

Tuning: Standard

e|-------------------------1-3-5---5-3-1-3-1-0---0--------------------------
B|---------------1-3-5---5-------------------------3-3-5-6-5-3-1-1-3-5------
G|-----2-------2------------------------------------------------------------
D|-2-2---2---2--------------------------------------------------------------
A|--------------------------------------------------------------------------
E|--------------------------------------------------------------------------

e|--------------------------------------------------------------------------
B|-3-1-0-0-1-3--6-55555555--------------------------------------------------
G|--------------------------------------------------------------------------
D|--------------------------------------------------------------------------
A|--------------------------------------------------------------------------
E|--------------------------------------------------------------------------
Tap to rate this tab
 
# A B C D E F G H I J K L M N O P Q R S T U V W X Y Z