Song name
# A B C D E F G H I J K L M N O P Q R S T U V W X Y Z

Misc Computer Games - Legend Ofzelda - Serenade Of Water tab

Zelda 64 - Serenade Of Water
Submitted By: Matthew Malysa

Tuning: Standard 

E|------------------------------------------------------------------------||
B|---------------------------12-------------------------------------12----||
G|---7------10-----14---14-----------------7------10-----14---14----------||
D|------------------------------------------------------------------------||
A|------------------------------------------------------------------------||
E|------------------------------------------------------------------------||

E|---------------------------------------------||
B|-----------------8--6--5--8---7--------------||
G|----14-----10--------------------------------||
D|--------12-----------------------------------||
A|---------------------------------------------||	
E|---------------------------------------------||

Added Note: 
hold the string on the last note (I didn't know what symbol to use to show this)
Tap to rate this tab
 
# A B C D E F G H I J K L M N O P Q R S T U V W X Y Z