Song name
# A B C D E F G H I J K L M N O P Q R S T U V W X Y Z

Misc Computer Games - Super Mario Brothers - Overworld tab

#----------------------------------PLEASE NOTE---------------------------------#
#This file is the author's own work and represents their interpretation of the #
#song. You may only use this file for private study, scholarship, or research. #
#------------------------------------------------------------------------------##

Tabbed by Clayton Alcock

                                      MARIO THEME(s)
                          

 Intro		     Melody ONE1		      Repeat once!
|-------------3----|-----------------------0--5-1-3-0-------------||
|--5-5-5--1-5-3--0-|-1-------------------1--------------1-3---0--o||
|--5-5-5--2-5-0--0-|----0-----2--4-3-2-0--------------------------||
|--0-0-0--0-0-0--0-|-------2-----------2--------------------------||
|--0-0-0--0-0------|-3-----3-----------3-------------------------o||
|-------------3--3-|-------------1------------1-------------------||

  Melody TWO2						(slide down)
|---3-2-1---0-------------------3-2-1---0---8-8-8------------------|
|---------4-------1-----1h3-----------4----------------------------|
|---------------2-----2--------------------------------------------|
|------------------------------------------------------------------|
|-3-----------3---------------3-----------3------------------------|
|-------1-----------1---------------1-------------(15)//////-------|

					   Melody TWO2.Part Two2
|---3-2-1---0------------------4--3-----|-----------------------|
|---------4-------1-----1h3----4--3--5--|--1-1-1-1-3-5----------|
|---------------2-----2--------5--4--5--|--1-1-1-1-3-5-5--------|
|------------------------------6--5--5--|--1-1-1-1-3-5---7p5----|
|-3-----------3----------------6--5--3--|-----------------------|
|-------1-----------1--------4----3-----|--4-4-4-4-6-8----------|

				     ...like the Intro really
|---------------|-------------------------------3---------------|
|-1-1-1-1--3--5-|-1-1-1-1-3-5--------5-5-5--1-5-3---------------|
|-1-1-1-1--3--5-|-1-1-1-1-3-5-5------5-5-5--2-5-0-4-------------|
|-1-1-1-1--3--5-|-1-1-1-1-3-5---7p5--0-0-0--0-0---0-------------|
|---------------|-----------------------------------------------|
|-4-4-4-4--6--8-|-4-4-4-4-6-8---------------------3-------------|

Harmonics that kind of sound like jumping through coins (when played fast).
|--------<5>-------<5>------<5>---------<5>----------|
|----<5>--------<5>--------<5>---------<5>-----------|
|-<5>---------<5>---------<5>---------<5>------------|
|----------------------------------------------------|
|----------------------------------------------------|
|----------------------------------------------------|

 Melody THREE3
|-0-----------1-1---|---5-5-5-3------------|------------------------||
|---1---------------|-----------6-5--------|---6-6-6-5-3-----------o||
|-----0---1-2-----2-|-4-----4-----5-5------|-4-----4-----5----------||
|-------------------|-------------5---7p5--|-------------5--5-------||
|-3-----------------|-------------3--------|-------------3-----3---o||
|-------0---1-------|-3-----3--------------|-3-----3----------------||


 Got the star..... (It's fun to kick back in at an odd place in MELODY TWO2)
|-8-8-8---8--8---8--8---7-7-7---7--7---7--7-----||
|-6-6-6---6--6---6--6---5-5-5---5--5---5--5----o||
|-------7------7--------------5------4----------||
|-----------------------------------------------||
|----------------------------------------------o||
|-----------------------------------------------||

 Down the flagpole.
|-------------------------------------------------------------|
|-------------------------------------------------------------|
|-------------6----------------7------------------8-8-8\10----|
|-------6---6----6-------7---7----7--------8----8-8-8-8\10----|
|---4h8---8----------5h9---9----------6h10---10---------------|
|-4----------------5----------------6---------------6-6\-8----|


Tap to rate this tab
 
# A B C D E F G H I J K L M N O P Q R S T U V W X Y Z