Song name
# A B C D E F G H I J K L M N O P Q R S T U V W X Y Z

Misc Computer Games - Super Mario Brothers - Underground tab

 e-----------------------------------------------------------------|
 b-----------------------------------------------------------------|
 g----------------------------10---7---8---------------------------|
 d---10---7---8----------------------------------------------------|
 a--------------------------8----5---6-----------------------------|
 e-8----5---6------------------------------------------------------|
               ^                        ^
              repeat twice             repeat wice

 e-------------------------------------------------------------------------|
 b-------------------------------------------------------------------------|
 g---------------------------321-------------------------------------------|
 d---------------------4-3-2------1--0-------------------------------------|
 a-6-5-3---6-5-----4-3-----------------1-0---------------------------------|
 e-------------4-3-------------------------4-3-----------------------------|

   From tabbing it I think it is pretty accurate. the song is not that hard but I learn 
sound effects from super mario that are easy, you just need to use harmonics.


 e-----5---------5-----5-----------------------------------------------|
 b--5----*-5-5-5----*5---*---------------------------------------------|
 g---------------------------------------------------------------------|
 d---------------------------------------------------------------------|
 a---------------------------------------------------------------------|
 e---------------------------------------------------------------------|
    This makes the coin sound effect.Its accurate,but just use harmonics in it,and it 
sound right. If you have questions you can e-mail me at guitarplayer534@yahoo.com. it is 
easy, and good luck!
Tap to rate this tab
# A B C D E F G H I J K L M N O P Q R S T U V W X Y Z