Song name
# A B C D E F G H I J K L M N O P Q R S T U V W X Y Z

Misc Computer Games - Sonic Adventure - It Doesnt Matter tab

-------------------------------------------------------------------------------
			It Doesn't Matter - Tony Harnell
-------------------------------------------------------------------------------

Hello.  I didn't find any tabs for this version of It Doesn't Matter so
I decided to tab it myself.  Because I play the rhythyms different everytime
I play this I'm just going to give you the chords and you can play the Rhythyhm that you 
 On the solo I couldn't get all of it but i got most
of it and I'm 99% sure that it is correct.  Enjoy


Tabbed by:Phat Stud 55
Email:phatstud55@gmail.com

Tuning:Standard.  You can play in drop D but I see no point.

Intro

e|--------------------------|        |----------------------|
B|--------------------------|        |----------------------|
G|--------------------------|        |----------------------|
D|-4---------4---------4-2--|x3 then |-4-4-4-5-5-5--7-------|
A|-2-x-x-x-x-2-x-x-x-x-2-0--|        |-2-2-2-3-3-3--5-------|
E|--------------------------|        |----------------------|

pre-verse

e|-----------------------|
B|-----------------------|
G|-----------------------|
D|--------------0--------|x3
A|-------0--1-2----------|
E|-0-4-0-----------------|

then

e|---------------------|
B|---------------------|
G|---------------------|
D|-2-0-----------------|and into the verse
A|-----2-1-0-----------|
E|-----------3-0-------|

Verse
There is a fill in here but i'm not sure how it goes.

e|-------------------------------------------|
B|--------8-let ring----------8--------------|
G|-----9--------------------9----------------|
D|-11---------------------9------------------|x2
A|-------------------------------------------|
E|-------------------------------------------|

Fill (just guessing)

e|---------------------------------------------|
B|---------------------------------------------|
G|---------------------------------------------|
D|----7--5--7/-slide up to like the 13th fret--|
A|----5--7--5/---------------------------------|
E|---------------------------------------------|

Pre-pre-chorus

e|----------------------------------------------------------------------|
B|----------------------------------------------------------------------|
G|----------------------------------------------------------------------|
D|---------------7--9--7------------------------------------------------|
A|-x pick slide--5--7--5------------------------------------------------|
E|----------------------------------------------------------------------|

pre-chorus 1 here are the chords you can figure out the rhythyms

e|-------------------------------------------------------------------------|
B|-------------------------------------------------------------------------|
G|-------------------------------------------------------------------------|
D|-3-3-3-3--5-5-5-5--7-7-7-7---8-8-8-8-10-10-10----------------------------|
A|-1-1-1-1--3-3-3-3--5-5-5-5---6-6-6-6--8-8-8-8----------------------------|
E|-------------------------------------------------------------------------|

pre-chorus 2 here are the chords you can figure out the rhythyms

e|----------------------------------------------------------------------|
B|----------------------------------------------------------------------|
G|----------------------------------------------------------------------|
D|--5-5-5-5--7-7-7-7--9-9-9-9--10-10-10----12-12-12----------+5 N.H-----|
A|--3-3-3-3--5-5-5-5--7-7-7-7---8-8-8-8----10-10-10-----10--------------|
E|----------------------------------------------------x-10--------------|

Chorus

e|---------------------------------------------------------------------------|
B|---------------------------------------------------------------------------|
G|---------------------------------------------------------------------------|
D|-------5-5-5-5-------------------------------------------------------------|
A|-------3-3-3-3--7-7-7-7--3-3-3-3--5-5-5-5----------------------------------|
E|-slide----------5-5-5-5--1-1-1-1--3-3-3-3----------------------------------|

e|------------------------------------------------------------------------------|
B|------------------------------------------------------------------------------|
G|------------------------------------------------------------------------------|
D|-------5-5-5-5----------------------------------------------------------------|
A|-------3-3-3-3--7-7-7-7--3-3-3-3--5-5-5-5-3-3-3-3--6-6-6-6--------------------|
E|----------------5-5-5-5--1-1-1-1--3-3-3-3-1-1-1-1--4-4-4-4--------------------|

play intro once then play the verse, prechorus 2  and the chorus

re intro fill
e|-------------------------------------------------------------------|
B|-------------------------------------------------------------------|
G|-7A.H~~~~~~ wide vibrato-------------------------------------------|
D|-------------------------------------------------------------------|
A|-------------------------------------------------------------------|
E|-------------------------------------------------------------------|


Solo if you want to play the Rhythym part look at the bottom for the tab

e|-------------------------------------------------------------------------------------|
B|-------------------------------------------------------------------------------------|
G|-13b-13b-13b-13b-13b-10-9-10-9--------------------10-12------------------------------|
D|-------------------------------10-----------10-12------------------------------------|
A|----------------------------------10~~-10-12-----------------------------------------|
E|-------------------------------------------------------------------------------------|

e|------------------------------16b-16b-16b-15~~~----------------------------|
B|----15-15-15----15-15-15-14~~----------------------------------------------|
G|-12----------12------------------------------------------------------------|
D|---------------------------------------------------------------------------|
A|---------------------------------------------------------------------------|
E|---------------------------------------------------------------------------|

e|---------------------------------------------------------------------------|
B|---------------------------------------------------------------------------|
G|-------------------------15b-15-14-12-15b-15b-15-14-12~~-------------------|
D|-15-14-12-10----15-14-12---------------------------------------------------|
A|-------------10------------------------------------------------------------|
E|---------------------------------------------------------------------------|

e|---------------5------------5------8-7-8--10----16b-16b-16b-15~~-------------|
B|------------6-----7~~-----7----8~--------------------------------------------|
G|-10-------5-------------7----------------------------------------------------|
D|--------7-------------7------------------------------------------------------|
A|-----------------------------------------------------------------------------|
E|-----------------------------------------------------------------------------|

Key change chorus

e|---------------------------------------------------------------------------|
B|---------------------------------------------------------------------------|
G|---------------------------------------------------------------------------|
D|--7-7-7-7------------------------------------------------------------------|
A|--5-5-5-5--9-9-9-9--5-5-5-5--7-7-7-7---------------------------------------|
E|-----------7-7-7-7--3-3-3-3--5-5-5-5---------------------------------------|

e|---------------------------------------------------------------------------|
B|---------------------------------------------------------------------------|
G|---------------------------------------------------------------------------|
D|--7-7-7-7------------------------------------------------------------------|
A|--5-5-5-5--9-9-9-9--5-5-5-5--7-7-7-7--5-5-5-5--8-8-8-8---------------------|
E|-----------7-7-7-7--3-3-3-3--5-5-5-5--3-3-3-3--6-6-6-6---------------------|

Outro

e|--------------------------------------------------------------------------|
B|--------------------------------------------------------------------------|
G|-----------------------------9--------------------------------------------|
D|-7-7-7-7---------------------7--------------------------------------------|
A|-5-5-5-5--9-9-9-9--9--7--5---5----the end---------------------------------|
E|----------7-7-7-7--7--5--3---5--------------------------------------------|

Outro Lead do this until the last note then end on 10

e|-14-12-10-14-12-10-14-12-10-14-12-10-14-12-10------------------------------|
B|---------------------------------------------------------------------------|
G|---------------------------------------------------------------------------|
D|---------------------------------------------------------------------------|
A|---------------------------------------------------------------------------|
E|---------------------------------------------------------------------------|

Chords under solo.  I'm not sure about the second chord.  Once again you can
figure out the rhythms.

e|--------------------------------------------------------------------------|
B|--------------------------------------------------------------------------|
G|--------------------------------------------------------------------------|
D|--5-5-5-5--10-10-10-----------------------------5-5-5-5-------------------|
A|--3-3-3-3--8--8--8---3-3-3-3--5-5-5-5--3-3-3-3--3-3-3-3--3--5--7-8-10-12--|
E|---------------------1-1-1-1--3-3-3-3--1-1-1-1-----------1--3--5-6-8--10--|


That's it.  The solo may be a little off but i'm pretty sure that it is right.  Enjoy.  
questions email me at phatstud55@gmail.com.

| /  slide up
| \  slide down
| h  hammer-on
| p  pull-off
| ~  vibrato
| +  harmonic
| x  Mute note
===============================================================================
Tap to rate this tab
# A B C D E F G H I J K L M N O P Q R S T U V W X Y Z