Song name
# A B C D E F G H I J K L M N O P Q R S T U V W X Y Z

Misc Computer Games - Deus Ex Theme tab

Deus Ex - Title

Hey, first tab, got it as acurate as I can. Was part of a midi I'm making but
said midi suckes to high heaven still. I'm actually rather proud of this bit, though. :)
While this isn't the whole title tune, it's the part that is most recognised.
(Heck, most of it was ambient effects you can't do on guitar. :P )
It's standard tuning, 4/4 time signature. Hope ya like it.
                                                                             
E||--0------5-8-7--5-------|--0---------------0----|--0------5-8-7--5-------|
B||---------------------6--|---------3-1-0---------|---------------------6--|
G||------------------------|-----------------------|------------------------|
D||------------------------|-----------------------|------------------------|
A||------------------------|-----------------------|------------------------|
E||------------------------|-----------------------|------------------------|


                                                                        
--0----------4----0----|--0----------3---------|---------0-1-0---------|
---------3-1-----------|---------3-1------1----|--3---------------3----|
-----------------------|-----------------------|-----------------------|
-----------------------|-----------------------|-----------------------|
-----------------------|-----------------------|-----------------------|
-----------------------|-----------------------|-----------------------|


                                                                            
---------------1----0----|--4----7----13----12----|--0------5-8-7--5-------|
--1-0---0-1--------------|------------------------|---------------------6--|
------2------------------|------------------------|------------------------|
-------------------------|------------------------|------------------------|
-------------------------|------------------------|------------------------|
-------------------------|------------------------|------------------------|


                                                                         
--0---------------0----|--0------5-8-7--5-------|--0----------4----0----|
---------3-1-0---------|---------------------6--|---------3-1-----------|
-----------------------|------------------------|-----------------------|
-----------------------|------------------------|-----------------------|
-----------------------|------------------------|-----------------------|
-----------------------|------------------------|-----------------------|


                                                                          
--0----------3---------|---------0-1-0---------|---------------1----0----|
---------3-1------1----|--3---------------3----|--1-0---0-1--------------|
-----------------------|-----------------------|------2------------------|
-----------------------|-----------------------|-------------------------|
-----------------------|-----------------------|-------------------------|
-----------------------|-----------------------|-------------------------|


                                                                    
--4----7----13----12----|------------------0--|--3--------1--------|
------------------------|--1------------3-----|--------------------|
------------------------|---------------------|--------------------|
------------------------|---------------------|--------------------|
------------------------|---------------------|--------------------|
------------------------|---------------------|--------------------|


                                                                        
--8--------5----13----|--12--------10--------|--3------5-6-5--3--1--0--|
----------------------|----------------------|-------------------------|
----------------------|----------------------|-------------------------|
----------------------|----------------------|-------------------------|
----------------------|----------------------|-------------------------|
----------------------|----------------------|-------------------------|


                                                                         
-----------0----1----|----5----5----5----5--|----12----12----12----12--||
--3------------------|----------------------|--------------------------||
---------------------|----------------------|--------------------------||
---------------------|----------------------|--------------------------||
---------------------|----------------------|--------------------------||
---------------------|----------------------|--------------------------||

Tabbed by Geddiz
Tap to rate this tab
 
# A B C D E F G H I J K L M N O P Q R S T U V W X Y Z